rock
 
|tablatures   |lyrics   |discussion forums   |more tabs @ XGuitar.com

Van_halen tabs

Hear About It Later guitar tab

Van Halen - "Hear About it Later"
from Fair Warning
Transcribed by Greg J. Musi (musi+@pitt.edu)
Here is the intro...
                                           
                                           let ring-------------------------}                                                                              
E-|---------------------------------------------------------------------------|
B-|---------------------------------------------------------------------------|
G-|---------2-----------4-----------------------------------------0-----------|
D-|-----2-----------2------------------5------------4-----------------4-------|
A-|-0-----------0-----------0-----/5--------0---5--------------------------5--|
E-|---------------------------------------------------------------------------|
    *Clean tone w/flanger.      slide                                          
                                   
                                   let ring---------------------}               
E-|---------------------------------------------------------------------------|
B-|---------------------------------------------------------------------------|
G-|---------2-----------4-----------------0---------------0-------------------|
D-|-----2-----------2------------------4-----4-----------------4--------------|
A-|-0-----------0-----------0------5------------------------------------------|
E-|---------------------------------------------------------------------------|
                                                                               
                                                let ring--------------------}                               
E-|---------------------------------------------------------------------------|
B-|---------------------------------------------------------------------------|
G-|---------2-----------4-----------------------------------------0-----------|
D-|-----2-----------2------------------5------------4-----------------4-------|
A-|-0-----------0-----------0-----/5--------0---5--------------------------5--|
E-|---------------------------------------------------------------------------|
                                                                               
                                   let ring---------------------}                                            
E-|---------------------------------------------------------------------------|
B-|---------------------------------------------------------------------------|
G-|---------2-----------4-----------------0---------------0-------------------|
D-|-----2-----------2------------------4-----4-----------------4--------------|
A-|-0-----------0-----------0------5------------------------------------------|
E-|---------------------------------------------------------------------------|
                                                                               
           let ring-------------------}          let ring---------------------}                                                           
E-|-------------0-------------------------------------------------------------|
B-|---------------------------------------------------------------------------|
G-|--------0----------------------------------------0--------------2---2-----3|
D-|--------------------2--------3--(3)-----------3-----3--------1-------------|
A-|----3--------------------------------2--3--------------3-------------------|
E-|-3--------------------------------------------------------1----------------|
                                                                               
                let ring-----}              let ring--------------------------                                                 
E-|---------------------------------------------------------------------------|
B-|---------------------------------------------------0---------------0-------|
G-|-2-----------3-------------------------------2---------2-------2------2----|
D-|-----3---3-------1-----------------------5-----------------5-------------5-|
A-|---------------------1---------------5-------------------------------------|
E-|-------------------------1---3---5-----------------------------------------|
                                                                               
    -----------}       let ring-----}                                                                           
E-|-0-------------------------------------------------------------------------|
B-|-----0---------------------------------------------------------------------|
G-|---------2^0--------------------0------------------------------------------|
D-|----------------------------3----------------------------------------------|
A-|------------------------3-------------2---3---x----------------------------|
E-|--------------------3------------------------------------------------------|
            pull off                                                           
                                                                               

  development and support by
dmitry ivanov