rock
 
|tablatures   |lyrics   |discussion forums   |more tabs @ XGuitar.com

Van_halen tabs

Good Enough guitar tab

Good Enough
by Van Halen
from the album 5150

tune down 6th string 3 1/2 steps to A
(or get yourself a bass A string like EVH)

t - tap
h - hammer on
p - pull off
b - bend
r - release bend
A.H. - Artificial Harmonic

to create the cool intro note
  A.H.
---------------
--------------- bend the note fully
---7b---------- then release it and 
--------------- go crazy on the whammy
--------------- bar
---------------

main riff during verses
----------------------------------------------------------------
----------------------------------------------------------------
-7--------7----7-------------7-------------------------2--2-----
-7--------7----7-------------7---------7\5--7/9---5----2--2-----
----7--7----------7--7---7------7--7---5\3--7/7---3p0--0--0-----
----0--0----------0--0---0------0--0---5\3--5/7-----------------


outro
  t            t            t      t          t         t         t         t
-10p5h8p5-----10p5h8p5-----10p5h8-10p8p7p5h8-10p7p5-----------------------------------
----------5h8----------5h8--------------------------h8-10p8-p5h8-10p8-p5h8-10p8-p5----
-----------------------------------------------------------------------------------h7-
--------------------------------------------------------------------------------------
--------------------------------------------------------------------------------------
--------------------------------------------------------------------------------------

  t        t          t         t            t            t    t    t   t    t   
-----------------------------------------------------------------------------------
-----------------------------------------------------------------------------------
-12p7-p5h7-12p7-p5h7-12p7-p5-------------------------------------------------------
-----------------------------h7-12p7p5p0h5h7-12p7p5p0------------------------------
------------------------------------------------------h7-12p7-12p6-12p5-12p3-12p5--
-----------------------------------------------------------------------------------

  t
----------------------------------------------------------------
----------------------------------------------------------------
----------------------------------2---------7br----2---2--------
----------------------------------2----------------2---2---x----
-12p3brb-----11-------------------0----------------0---0--------
---------------------------/7\----0-----------------------------

  development and support by
dmitry ivanov