rock
 
|tablatures   |lyrics   |discussion forums   |more tabs @ XGuitar.com

Van_halen tabs

Feels So Good guitar tab

Feels So Good 
by Van Halen
from the album OU812

intro
----------------------------------------------------------------------------
-----------1--------------------------------------------1-----6----5--------
---2-------2-------------4-----2-----------2---------2--2-----5----5--------
---3-------3-------------5--5--3-----------3-------3----3-----7----5--------
----------------------------7-----------------------------------------------
----------------------------------------------------------------------------


----------------------------------------------------------------------------
----3-----3------3-----------------------1------------1---------------------
----5-----4------5----4----2---------2---2---------2-----4--------2---------
----5-----5------5------5--3------3------3------3--------5----5---3---------
--------------------------------------------------------------7-------------
----------------------------------------------------------------------------


-----------------------3----------------------------------------------------
------------------1----3-----5--------3---3-----3---------------------------
---2----------2---2----4-----5------------4-----5----4----------------------
---3-------3------3----------5------------5-----5-------5-------------------
----------------------------------------------------------------------------
----------------------------------------------------------------------------

---------------------------------------------------
----------------1------------1---------------------
--2---------2---2---------2-----4--------2---------
--3------3------3------3--------5----5---3---------
-------------------------------------7-------------
---------------------------------------------------


-----------------------3----------------------------------
------------------1----3-----5--------3---3-----3---------
---2----------2---2----4-----5------------4-----5----4----
---3-------3------3----------5------------5-----5-------5-
----------------------------------------------------------
----------------------------------------------------------

---------------------------------------------------
----------------1------------1---------------------
--2---------2---2---------2-----4--------2---------
--3------3------3------3--------5----5---3---------
-------------------------------------7-------------
---------------------------------------------------


-----------------------3----------------------------------
------------------1----3-----5--------3---3-----3---------
---2----------2---2----4-----5------------4-----5----4----
---3-------3------3----------5------------5-----5-------5-
----------------------------------------------------------
----------------------------------------------------------

-----------------------------------------------------------------------------
-----------------------------------------------------------------------------
--9----7----5----4-------------4-----------9----7----5----2---------2--------
--10---9----7----5--------5-------5--------10---9----7----5-----4-------4----
-----------------------7-------------7--------------------5---------5------5-
-----------------------------------------------------------------------------

----------------------------------------------------------------------------
----------------------------------------------------------------------------
--9----7----5----4-------------4----------2------4------5----2-----4--------
--10---9----7----5--------5-------5-------3------5------7----3-----5--------
-----------------------7-------------7----3------5------7----3-----5--------
----------------------------------------------------------------------------



----------3---3-------------------------------------------------------------
----------6---6-----5--------------3----------------------------------------
------5-------5--------5-----------5----4-----------------------------------
---5----------------------5----5------------7---5---------------------------
----------------------------------------------------------------------------
----------------------------------------------------------------------------

Van Halen Guitar Tablature Archive
  development and support by
dmitry ivanov