rock
 
|tablatures   |lyrics   |discussion forums   |more tabs @ XGuitar.com

Van_halen tabs

Feel Your Love Tonight guitar tab


                         Feel Your Love Tonight
                              By Van Halen
                            From Van Halen I
                        Transcribed by Jeff Glawe
                                                      Tune down 1/2 step


                M     M     M  M        M     M                 M       
E-----------------------------------------------------------------------
B-----------------------------------------------------------------------
G-----------------------------------------------------------------------
D---------2~~~--------------------4-----------------------2~~~----------
A------------------5-----4--------5~~~-----4-----2-----------------5----
E---3--4--------0-----0-----0--0--------0-----0-----3--4--------0-------
                                                                        

    M     M  M        M     M                 M     M     M  M          
E-----------------------------------------------------------------------
B-----------------------------------------------------------------------
G-----------------------------------------------------------------------
D---------------------------------------6--------4-----2--------4-------
A------4--------5~~~-----4-----2--------7~~~-----5-----4--------5-------
E---0-----0--0--------0-----0-----3--4--------0-----0-----0--0----------
                                                                        

         M     M                 M     M     M  M        M     M        
E-----------------------------------------------------------------------
B-----------------------------------------------------------------------
G-----------------------------------------------------------------------
D-----------2--------------6--------4-----2--------4--------2-----------
A---~~~-----4-----2--------7~~~-----5-----4--------5~~~-----4-----2-----
E--------0-----0-----3--4--------0-----0-----0--0--------0-----0--------
                                                                        

                                                               M        
E------------------------------------||---------------------------------
B---------------3-----------------3--||---------------------------------
G---------2-----2-----------2-----2--||*--------------------------------
D---------2-----4-----------2-----4--||*-----------2~~~-----------------
A---------0-----0-----------0-----0--||---------------------5-----4-----
E---3--4--------------3--4-----------||------3--4--------0-----0--------
                                                                        

    M  M           M     M      2x                                      
E-------------------------------||--------------------------------------
B-------------------------------||--------------3-----------------3-----
G------------------------------*||--------2-----2-----------2-----2-----
D------------4-----------------*||--------2-----4-----------2-----4-----
A------------5~~~-----4-----2---||--------0-----0-----------0-----0-----
E---0--0-----------0-----0------||--3--4--------------3--4--------------
                                                                        

              M     M     M  M        M     M                 M         
E-----------------------------------------------------------------------
B-----------------------------------------------------------------------
G-----------------------------------------------------------------------
D-------2~~~--------------------------------------------6--------4------
A----------------5-----4--------5~~~-----4-----2--------7~~~-----5------
E---3^--------0-----0-----0--0--------0-----0-----3--4--------0---------
                                                                        

    M     M  M        M     M           let ring------------>   M  M    
E-----------------------------------------------------------------------
B------------------------------------------------7-----7--5-------------
G---------------------------------------5--------5-----5--5--5----------
D------2--------4--------2--------------5--------------------5----------
A------4--------5~~~-----4-----2--------3--------------------3----------
E---0-----0--0--------0-----0-----3--4--------------------------2--2----
                                                                        

    M     left hand slide   pick slide                                  
E---------------------------x--/----------------------------------------
B---------------------------x--/----------------------------------------
G------4----------------------------------------------------------------
D------4--x--/---------------------h1---/---9~~~-----------2~~~---------
A------2--x--/----------------------------------------------------------
E---2-----x--/---------------------------------------3--4--------0------
                                                                        

       M     M  M        M     M                                 3x     
E-----------------------------------------||--------9------------||-----
B-----------------------------------------||-----------9--12p9---||-----
G---------------------------------4---/---||*--11^--------------*||-----
D-----------------------------------------||*-------------------*||-----
A---5-----4--------5~~~-----4-------------||---------------------||-----
E------0-----0--0--------0-----0----------||---------------------||-----
                                                                        

    .    .  .   .   .   wide vibrato        let ring----->    M M  M    
E-----------------------------------------------------------------------
B--------9----------------------------------3-----5--3------------------
G---11^-----12--11--10--9~~~---\------2-----2-----2--2--2---------------
D-------------------------------------2-----4-----2-----2-------2--4----
A-------------------------------------0-----0-----------0---/4----------
E-----------------------------------------------------------------------
                                                                        

                         M              M     M  M        M     M       
E------5--5--5----------------------------------------------------------
B---3--5--5--4----------------------------------------------------------
G---2--2--2-------------------------------------------------------------
D---4-----------4--2--------2~~~--------------------4-------------------
A---0--------------------------------5-----4--------5~~~-----4-----2----
E------------------------0--------0-----0-----0--0--------0-----0-------
                                                                        

                M     M     M  M        M     M                         
E-----------------------------------------------------------------------
B-----------------------------------------------------------------------
G------------------------------------------------------------2----------
D---------6--------4-----2--------4--------2-----------------2----------
A---------7~~~-----5-----4--------5~~~-----4-----2-----------0----------
E---3--4--------0-----0-----0--0--------0-----0-----3--4----------------
                                                                        

    let ring----->    M M  M                                            
E--------------------------------5--5-----------------------------------
B---3-----5--3----------------3--5--4-----------------------------------
G---2-----2--2--2-------------2--2--------------------------------------
D---4-----2-----2-------2--4--4--------4--2-----------------------------
A---0-----------0---/4--------0-----------------------------------------
E-----------------------------------------------------------------------
                                                                        


  development and support by
dmitry ivanov