rock
 
|tablatures   |lyrics   |discussion forums   |more tabs @ XGuitar.com

Van_halen tabs

Dreams guitar tab

From: James Norton 
Date: Fri, 4 Aug 1995 02:57:56 -0700 (PDT)
Subject: Dreams Tab!

Here is some tab for Dreams (one of my favorite Vh songs!)
right now there is just the intro, but there is more to come!

Report any errors to me, I might have messed up some where.


 

INTRO (Acoustic Guitar)
e-----------|----------------|----------------|----------------------|
B-----------|----------------|---------1-1-3--|--3----5--------------|
G-------5/7-|--7-------5--5~~|-------2--------|---------5---4---4~~--| 
D-----5-----|----------------|-----3----------|----------------------|
A---3-------|----------------|----------------|----------------------|
E-----------|----------------|----------------|----------------------|

e-------------------|----------------------|-------------------|
B-----------3--5h6--|--6------6/8-----5~~--|-------3----5p3\1--| 
G---------5---------|----------------------|-------------------| 
D-------5-----------|----------------------|-------------------|
A-------------------|----------------------|-------------------|
E-------------------|----------------------|-------------------| 


e----------------------------|----------------|-------------------|
B---/6------5---(5)p3---3~~--|----------------|--3~~--------------|
G----------------------------|--------5--5/7--|----------5--5~~---| 
D----------------------------|------5---------|-------------------|
A----------------------------|----3-----------|-------------------|
E----------------------------|----------------|-------------------|

e---------------|---------------------------|---------------------|
B------1--1--3--|--3----5-------------------|---------3--5h6------|
G----2----------|---------5---4---4b(1/2)---|-------5-------------|
D--3------------|---------------------------|-----5---------------|
A---------------|---------------------------|---------------------|
E---------------|---------------------------|---------------------|

e----------------------|-----------------|------------------------|
B---6------6/8------5h8|p5----3---5p3\1--|--5/6--6--5--5--3-3-----|
G----------------------|-----------------|------------------------|
D----------------------|-----------------|------------------------|
A----------------------|-----------------|------------------------|
E----------------------|-----------------|------------------------|
  development and support by
dmitry ivanov