rock
 
|tablatures   |lyrics   |discussion forums   |more tabs @ XGuitar.com

Van_halen tabs

Dreams bass tab

Title: Dreams
Artist: Van Halen
Album: 5150

tabbed by manuscriptreplica

Intro

E| ---------------------------------
A| -3-3-3-3-3-3-3-3-3-3-3-3-3-3-3-3-
D| ---------------------------------
G| ---------------------------------

E| -0-0-0-0-0-0-0-0-0-0-0-0-0-0-0-0-
A| ---------------------------------
D| ---------------------------------
G| ---------------------------------

E| -1-1-1-1-1-1-1-1-1-1-1-1-1-1-1-1-
A| ---------------------------------
D| ---------------------------------
G| ---------------------------------

E| -3-3-3-3-3-3-3-3-3-3-3-3-3-3-3-3-
A| ---------------------------------
D| ---------------------------------
G| ---------------------------------


E| ---------------------------------
A| -3-3-3-3-3-3-3-3-3-3-3-3-3-3-3-3-
D| ---------------------------------
G| ---------------------------------

E| -0-0-0-0-0-0---------------------
A| -------------0-0-0-0-0-0-0-0-0-0-
D| ---------------------------------
G| ---------------------------------

E| -1-1-1-1-1-1-1-1-1-1-1-1-1-1-1-1-
A| ---------------------------------
D| ---------------------------------
G| ---------------------------------

E| -3-3-3-3-3-3-3-3-3-3-3-3-3-3-3-3-
A| ---------------------------------
D| ---------------------------------
G| ---------------------------------

Verse (world turns black + white...)

E| -------------1-1-1-1-1-1-1-1-1-1-
A| -0-0-0-0-0-0---------------------
D| ---------------------------------
G| ---------------------------------

E| -3-3-3-3-3-3---------------------
A| -------------0-0-0-0-0-0-0-0-0-0-
D| ---------------------------------
G| ---------------------------------

E| -1-1-1-1-1-1-3-3-3-3-3-3-3-3-3-3-
A| ---------------------------------
D| ---------------------------------
G| ---------------------------------

E| ---------------------------------
A| -0-0-0-0-0-0-0-0-0-0-0-0-0-0-0-0-
D| ---------------------------------
G| ---------------------------------

E| -1-1-1-1-1-1-3-3-3-3-3-3-3-3-3-3-
A| ---------------------------------
D| ---------------------------------
G| ---------------------------------

E| ---------------------------------
A| -0-0-0-0-0-0-0-0-0-0-0-0-0-0-0-0-
D| ---------------------------------
G| ---------------------------------

E| -1-1-1-1-1-1-3-3-3-3-3-3-3-3-3-3-
A| ---------------------------------
D| ---------------------------------
G| ---------------------------------

Chorus

E| ---------------------------------
A| -3-3-3-3-3-3-3-3-0-0-0-0-0-0-0-0-
D| ---------------------------------
G| ---------------------------------

E| -0-0-0-0-0-0-0-0-1-1-1-1-1-1-1-1-
A| ---------------------------------
D| ---------------------------------
G| ---------------------------------

E| ---------------------------------
A| -3-3-3-3-3-3-3-3-0-0-0-0-0-0-0-0-
D| ---------------------------------
G| ---------------------------------

E| -1-1-1-1-1-1-1-1-3-3-3-3-3-3-3-3-
A| ---------------------------------
D| ---------------------------------
G| ---------------------------------

Repeat Verse

Repeat Chorus: slight variation
last bit of chorus:

E| -1-1-1-1-1-1-1-1-3----3----3-----
A| ---------------------------------
D| ---------------------------------
G| ---------------------------------


ive had a lack of time with yr 12 lately ill give you the finished product soon - im sorry for not finishing it. Try not to gimme a bad rating please until ive posted the rest! thanx
date now - 20/11/2003
should be finished in a month or so - after exams
seeya
  development and support by
dmitry ivanov