rock
 
|tablatures   |lyrics   |discussion forums   |more tabs @ XGuitar.com

Van_halen tabs

Could This Be Magic guitar tab

Could This Be Magic
by Van Halen
from the album Women And Children First

use a slide

intro
----------------------------------------------------------------------------------
------------------------------------------------------------15----15---------17---
-9\7------9--9--9--9---9\7------9\7-------9--9--9-----14/16----16-----14/16-------
------9----------------------9-------9--------------------------------------------
----------------------------------------------------------------------------------
----------------------------------------------------------------------------------


------------------------------------------
-17/21------------------------------------ One, two.    One, two, three, four.
-------21--------9------9-----------------
------------7/9------9-------8\7\4/5/6----
------------------------------------------
------------------------------------------


------------------------------------------------------------------------------------
-7---------8---9--------------------------------------------------------------------
----------------------------8--------9------4/6-----4-------------------------------
---------------------------------------------------------4--5--6--4--5--6--5--4-----
---------------------------------------------------------------------------------7--
------------------------------------------------------------------------------------


-----------------------------------------------------------------------------------
------------------------7---------8---9--------------------------------------------
------------------------------------------------8/9-----8---------9------4/6---4---
--------2--------------------------------------------------------------------------
-----------------------------------------------------------------------------------
--3p0------------------------------------------------------------------------------


----------------------------------------------
----------------------------------------------
----------------------------------------------
----4--5--6--4--5--6--5--4---------------2----
----------------------------7-----------------
-----------------------------------3p0--------
  development and support by
dmitry ivanov