rock
 
|tablatures   |lyrics   |discussion forums   |more tabs @ XGuitar.com

Van_halen tabs

Bottoms Up guitar tab

Van Halen - Bottoms Up!
Tabbed By: Arian
Email: shafiee9@sbcglobal.net

Tuning: Half Step Down (Eb Ab Db Gb Bb Eb)

Im only gonna post the main riff...if you want the solo..e-mail me.



Eb|----------------------------------------------------------------||
Bb|-----------------------------------3----------------------------||
Gb|---------2---4--2-------4--2--4----2----------------------------||
Db|---------2---2--2-------2--2--2---------------------------------||
Ab|----------------------------------------------------------------||
Eb|----0-----------------------------------------------------------||


Eb|----------------------------------------------------------------||
Bb|----------------------------------------------------------------||
Gb|-------2--4--2-------4---2---4---2------------------------------||
Db|-------2--2--2-------2---2---2---0------------------------------||
Ab|----------------------------------------------------------------||
Eb|---0------------------------------------------------------------||
  development and support by
dmitry ivanov