rock
 
|tablatures   |lyrics   |discussion forums   |more tabs @ XGuitar.com

Van_halen tabs

Beautiful Girls bass tab

Van Halen
Beautiful Girls

Transcribed By: Ryan Huntsman  (IbanezBassMX)
Email: Ryan82184@aol.com

Tunning: tune down one half step
low to high (Eb, Ab, Db, Gb)

Intro  (0:00)
Gb-r----------------------11------------
Db-e------------------------------------
Ab-s------------------7-9-----10-11~~\\--
Eb-t------------------------------------

Gb---/11-----13~-----------------------------
Db-4-----/14---------------------------------
Ab----------------------0~-----0-----5----x--
Eb----------------0-1-2-----2-----3----7-----

Gb-------------11------------------------------------------------11h13p11---------
Db-------------------------------------------------------------4/---------14-13~--
Ab-5-6-----4/9----10-11~--------0~-----0-----5-----x--5--4-2~---------------------
Eb-----0~------------------0--2-----2-----3----7----------------------------------

1st Verse  (0:19)
Gb-----------------------------------------------------
Db-----------------------------------------------------
Ab-------4--5~-5-4--5-2-----------4--5~---4--5-2-------
Eb-0--0------------------4-0~--0-----------------4-0~--

Gb--------------------------------------------9------
Db----------------------------------------7h9--------
Ab----4--5~---4--5-2----------4--5~---4/7------------
Eb-0-----------------4-0~--0---------------------0~--

Gb-------------------------
Db-------------------------  X2
Ab----4--5~---4--5-2-------
Eb-0-----------------4-0~--

Gb-----------------------------------------------------------------
Db-----------------------------------------------------------------
Ab----4--5~--4--5-2-----------4--5~--4--5\\4-2-0--------------------
Eb-0----------------4-0~---0--------------------2~--2--2--2--2--2--

Gb----------------------------------------------------------------------------4---------
Db------------------------4-----------------------------------------------2h4-----------
Ab--------------------2h4----4---3-2~--2--2--2--2--2--2---0--2~--2--2--2----------------
Eb-2---0-2~--2--2--2--------------------------------------------------------------4--2--

Gb---------------------------------------------
Db---------------------------------------------
Ab-------4--5~--4--5-2----------4--5~----------
Eb-0--0----------------4-0~--0--------5--3--0--

1st Chorus (0:57)
Gb-----------------------------------------------------------------5-----7--
Db-------------------------------------------------------5------------------
Ab-----------0-0-2-3~---------------0-0-2-3~----------------3h5-3-----5-----
Eb-0-0-2-3~------------8\\-0-0-2-3~-----------0--1--2--3---------------------

Gb---------------------------------------------5---------
Db------------------5------------------------------------
Ab-------7------5h7---7~-5-6-x--7--5-------3~------------
Eb-0--0-----0--------------------------7-----------3--2--

2nd Verse  (1:14)
Gb-------------------------------------------------------------------------
Db-------------------------------------------------------------------------
Ab-------4--5~--4--5-2----------4--5~--4--5-2----------4--5~--4--5-2-------
Eb-0--0----------------4-0~--0----------------4-0~--0----------------4-0~--

Gb-------------------9-----------------------------------------------------
Db-----------/7--7h9-------------------------------------------------------
Ab----4--5~--------------------4--5~-5-4--5-2----------4--5~--4--5-2-------
Eb-0---------------------0--0-----------------4-0~--0----------------4-0~--

Gb-------------------------------------------------------------------------------------------------
Db-------------------------------------------------------------------------------------------------
Ab----4--5~--4--5-2----------4--5~--4--5-2----------4--5~--4--5\\4-2-0------------------------------
Eb-0----------------4-0~--0----------------4-0~--0--------------------2~--2--2--2--2--2--2---0-2~--

Gb----------------------------------------------------4h6--4--------
Db-------------4h6-4------------------------------------------------
Ab---------2h4--------6-2~-2-2-2--2-2--2---0-2~-2-2-2---------------
Eb-2--2--2----------------------------------------------------4--2--

2nd Chorus  (1:42)
Gb----------------------------------7-5-------------------
Db------------------------------3h5-----------------------
Ab------4--x-0---------0-0-2-3~---------------------------
Eb-0-0---------3--3-----------------------0-0-2-3~--/14\\--

Gb---------------------------5---7------4---2----4-2--------4---4/6-4---------
Db--------------------------------------------------------------------6-------
Ab-0-0-2-3~----------0-1-2-3---5----2-2---2---2------0-2~-2---2---------------
Eb----------0-1-2--3----------------------------------------------------0-2~--

Guitar Solo  (1:59)
Gb---------------------------------------------------------------------
Db-----4-----2-----4-2----------4-----2-----2h4--4---------4-----2-----
Ab---------------------4-----------------------------------------------
Eb-2------2-----2--------2~--2-----2-----2----------2~--2-----2-----2--

Gb------2h4p2-----------------
Db-2h4--------4-3-2-----------
Ab------------------4-3-2-----
Eb-------------------------0--

(2:08)
Gb------r----------11---------------
Db------e---------------------------
Ab------s-----/9-9----10-11~--------
Eb-12\\--t----------------------12\\--

Gb-----11-----13~-----------------------------------------11---------
Db-/9-----/14--------------------------------------------------------
Ab-----------------------0~----0----5----x--5--6----/9--9----10/11~--
Eb-----------------0-1-2-----2----3---7----------0~------------------

3rd Verse  (2:28)
Gb-------------------------------------------------------------------------
Db-------------------------------------------------------------------------
Ab-------4--5~--4--5-2----------4--5~--4--5-2----------4--5~--4--5-2-------
Eb-0--0----------------4-0~--0----------------4-0~--0----------------4-0~--

Gb----------------13---------------------------------------------------
Db-----------/14--14---------------------------------------------------
Ab----4--5~-----------------4--5~--4--5-2----------4--5~--4--5-2-------
Eb-0------------------0--0----------------4-0~--0----------------4-0~--

Gb-------------------------------------------
Db-------------------------------------------
Ab----4--5~--4--5-2----------4--5~-5---------
Eb-0----------------4-0~--0----------5--3-0--

3rd Chorus  (2:47)
Gb-------------------------7-5------------------------------------------------
Db--------------------3/5-----------------------------------------------------
Ab-----------0-0-2-3~---------------------------0-0-2-3~----------0-1-2-3--5--
Eb-0-0-2-3~---------------------0-0-2-3~--/15\\------------0-1-2-3-------------

Gb-----------------------------------6-7--9-----
Db---------------------5----6-7-8--9------------
Ab-----7----7------5h7---7~-----------------5~--
Eb-0-0---0-----5h7------------------------------

Outro  (3:03)
Gb---------------------------------------------------------------------------
Db--------------------------------------------------4--5--6--7--5------------
Ab-----------------------------4--5~-5-0--------5~-----------------7---5-----
Eb-2--3--4--5--3--2---3-0~--0-------------3-2-0--------------------------0~--

Gb--------------------------------------------------------------------------
Db--------------------------------------------------------------------------
Ab----4--5~-5-0--------5~--------------4--5--6---------4--5~-5-0--------5~--
Eb-0-------------3p2-0-----2--3--4--5-----------0~--0-------------3-2-0-----

Gb----------------------------------------------------------------4--5--6------
Db-4--5--6--7p5---------------------------------------4--5--6--7---------------
Ab--------------7-0--------------4--5~-5-0--------5~---------------------------
Eb-------------------3--2-0~--0-------------3-2-0--------------------------0~--

Gb----------------------------------------------------------------------
Db----------------------------------------------------------------------
Ab----4--5~--------5~-----------------------------4--5~-5-0---------5~--
Eb-0-------------------2--3--4--5--3--2--0-0~--0-------------3-2-0------

Gb----------------5-------------------------------------------------------------
Db-4--5--6--7p5-7----7--5-------------------------------------------------------
Ab--------------------------------4--5~-5-0---------5~--------------------------
Eb-------------------------0~--0-------------3-2-0------2--3--4--5--3--2--3-0~--

Gb-----------------------------------------------------------------------
Db------------------4--5--6--7p5-7---------------------------------------
Ab----4--5~~~---5~-----------------4--5--6---------4--5~-5-0---------5~--
Eb-0----------------------------------------0~--0-------------3-2-0------

Gb-----------------------------
Db-----------------------------
Ab---------------4--5--6--7~\\--
Eb-2--3--4--5-5----------------

Thats it, Have fun.
GW Mar. 2003
Please rate this tab, Thanks.
  development and support by
dmitry ivanov