rock
 
|tablatures   |lyrics   |discussion forums   |more tabs @ XGuitar.com

Van_halen tabs

A.F.U. (Naturally Wired) guitar tab

                        A.F.U. (Naturally Wired)
                             Van Halen
                               OU812
                       Transcribed by Jeff Glawe
                                                      tune down 1/2 step


    Intro       Let ring----------------->                              
E-----------------------------------------------------------------------
B-----------------------------------------------------------------------
G---------------------------------7--------4---------5p4--2-------------
D---------------7-----7--------7--------5-----5\(3)-------3---p7--------
A---------------7--7-----7--8-------------------------------------7-----
E-----------------------------------------------------------------------
                tap harm. 12 frets above notes----------->              

                                                                        
E-----------------------------------------------------------------------
B--------------------------5--\--3--3-----------------------------------
G---------------7----6-----5--\--3--3~~~----------------------7----6----
D---7--------7--7\5-----5------------------p7-----7--------7--7\5-------
A------7--8------------------------------------7-----7--8---------------
E-----------------------------------------------------------------------
                                                                        

                                                                        
E-----------------------------------------------------------------------
B-----------------------------------------------------------------------
G-----------------------------------------------------------------------
D---5-------------------------------------------------------------------
A-----------------------------------------------------------------------
E-----------------------------------------------------------------------
                                                                        


  development and support by
dmitry ivanov