rock
 
|tablatures   |lyrics   |discussion forums   |more tabs @ XGuitar.com

Van_halen tabs

1984 guitar tab

1984 by Van Halen
from the album 1984

Synth arrangement for guitar
---------------------------------11----------------------19----------
-----12-----------9--------------12-------------19-------19----------
-----13-----------9--------------13-------------16-------16----------
-----14-----------11--------13---------------------------------------
---------------------------------------------------------------------
---------------------------------------------------------------------


---18--------16--------14-------------14-----------------------------
---19--------17--------16-------------14-----------16----------------
---16--------16--------16-------------16-----------16----------------
---------------------------------------------------------------------
---------------------------------------------------------------------
---------------------------------------------------------------------


-------------14---16----19-------------------------------------------
---14---16--------------21----------9----7--------7----------12------
------------------------21----------9----8--------8----------13------
------------------------------------9----9--------8----------14------
---------------------------------------------------------------------
---------------------------------------------------------------------


---14----------------------------------------------14----------------
---14----------------------------------------------------------------
---16-----------------16-------12--------11--------------------------
----------------------16-------13------------------------------------
----------------------16-------14------------------------------------
---------------------------------------------------------------------


Van Halen Guitar Tablature Archive
  development and support by
dmitry ivanov