rock
 
|tablatures   |lyrics   |discussion forums   |more tabs @ XGuitar.com

U2 tabs

Zoo Station bass tab

U2 ZOO STATION (BASS TAB)
-------------------------
tabbed by: steve palmer- am560@freenet.carleton.ca

This is the line used in the intro, outro, and whenever the chord
is 'A'

     A				    A
g|--------------------------------------------------------------|
d|--------------------------------------------------------------|
a|--------------------------------------------------------------|
E|---5-5--3--5-5--3--5--3-2-3-2-----5-5--3--5-5--3--5--3-2-3-2--|
(This is repeated until edge starts the chorus riff)


At the chorus riff:
     G9        D9         A
g|--------------------------------------------------------------|
d|---5-3--------------------------------------------------------|
a|--------5-3--5-3----------------------------------------------|
E|------------------5-3---5-5--3--5-5--3--5--3-2-3-2------------|
(This is repeated 2x and used at every chorus)


     A				    A
g|--------------------------------------------------------------|
d|--------------------------------------------------------------|
a|--------------------------------------------------------------|
E|---5-5--3--5-5--3--5--3-2-3-2-----5-5--3--5-5--3--5--3-2-3-2--|

 I'm ready....

     G	             D               A	
g|--------------------------------------------------------------|
d|--------------------------------------------------------------|
a|-------------------5-5--3--5-5--3-----------------------------|
E|---3-3--1--3-3--1------------------5-5--3--5-5--3--5--3-2-3-2-|

 I'm ready....                 ready for what's next...

This formation is repeated for every verse.

Outro:
     A				    A
g|--------------------------------------------------------------|
d|--------------------------------------------------------------|
a|--------------------------------------------------------------|
E|---5-5--3--5-5--3--5--3-2-3-2-----5-5--3--5-5--3--5--3-2-3-2--|
(repeated several times--no chord change)

suggestions welcome
  development and support by
dmitry ivanov