rock
 
|tablatures   |lyrics   |discussion forums   |more tabs @ XGuitar.com

U2 tabs

With A Shout guitar tab

With A Shout

Music by U2
Lyrics by Bono
Transcribed by Brandon Leniart 

tune down 1/2 step

intro:
1------------12-------------------------                    
2----------------------10---------12----                   
3---------------------------------------                   
4---------------------------------------                   
5---0-----------------------------------                    
6---------------------------------------                    

Oh, and where do we go?

1---0-----------------------------------
2---1--------------------------------5--
3---2-----------------------5-----------
4---2---------------7-------------------
5---0---------0-------------------------
6---------------------------------------

Where do we go from here?

1-----------15-----------15-----------14-----------14----14----14--                          
2---17-----------17-----------17-------------17--------------------                       
3------------------------------------------------------------------                         
4------------------------------------------------------------------                          
5------------------------------------------------------------------                              
6------------------------------------------------------------------                              

Where to go?

1-------------------------
2----------------------5--
3----------------7--------
4---------7---------------
5---0---------------------
6-------------------------

To the side of a hill
Blood was spilt
We were still looking at eachother
Oh, we're going back there

*(this riff is played ocassionally an octave lower)
1---15---15---15\12---12---12--                        
2---15---15---15\12---12---12--                     
3------------------------------                   
4------------------------------                      
5------------------------------                     
6------------------------------                   

Jerusalem

1--------------------                       
2---10----10-----10--                          
3---9-----9------9---                   
4---7-----7------7---                     
5--------------------                     
6--------------------   

Woah, Jerusalem

1---15---15---15/17--17--17--17\15\12---12---12--      
2---15---15---15/17--17--17--17\15\12---12---12--    
3------------------------------------------------      
4------------------------------------------------     
5------------------------------------------------      
6------------------------------------------------      

1---0---0---0------0---0---0------3---3---3------0---0---0--
2---1---1---1------3---3---3------1---1---1------3---3---3--
3---2---2---2------2---2---2------2---2---2------2---2---2--
4---2---2---2------2---2---2------2---2---2------2---2---2--
5---0---0---0------0---0---0------0---0---0------0---0---0--
6-----------------------------------------------------------

Shout, shout
With a shout, shout it out
Shout, shout it out
I wanna go to the foot of the Messiah
To the foot of He who made me see
To the side of the hill where we were still
We were filled with our love
We're gonna be there again
Jerusalem
Jerusalem
Shout, shout
With a shout, shout it out 
Shout, Shout

1---<12>--- with feedback and string scrapes           
2----------                                   
3----------                                
4----------                           
5----------                               
6----------                                   

Outro:
1---------------0-----------0--------------            
2-----------1-------------------0---1------            
3-------2-------------------------------2--            
4---2--------------------------------------          
5------------------------------------------           
6------------------------------------------          


--These days run away like horses over the hill--
  development and support by
dmitry ivanov