rock
 
|tablatures   |lyrics   |discussion forums   |more tabs @ XGuitar.com

U2 tabs

Wild Honey bass tab

(Intro)
G:----------|----------|----------|----------|
D:----------|----------|----------|----------|
A:----------|----------|----------|----------|
E:-----3---3|-3---3---3|-3---3---3|-3---0---3|

G:----------|----------|----------|----------|
D:----------|----------|----------|----------|
A:----------|----------|----------|----------|
E:-----0---3|-3---3---3|-3---3---3|-3---0---3|

G:----------|----------|----------|----------|
D:----------|----------|----------|----------|
A:-----3---3|-3---3---3|-3---3---3|-3---0---3|
E:----------|----------|----------|----------|

G:----------|----------|----------|----------|
D:----------|----------|----------|----------|  x2
A:----------|----------|----------|----------|
E:-----0---3|-3---3---3|-3---3---3|-3---0---3|

G:----------|----------|----------|----------|
D:----------|----------|----------|----------|
A:-----3---3|-3---3---3|-3---3---3|-3---0---3|
E:----------|----------|----------|----------|

G:----------|----------|----------|----------|
D:----------|----------|----------|----------|
A:----------|----------|----------|----------|
E:-----0---3|-3---3---3|-3---3---3|-3---0---3|

G:----------|----------|----------|----------|
D:----------|----------|----------|----------|  x2
A:----------|---3--3---|----------|---5--5---|
E:---0--0---|----------|---3--3---|----------|

G:----------|----------|----------|----------|
D:----------|----------|----------|----------|  x4
A:----------|----------|----------|----------|
E:-----0---3|-3---3---3|-3---3---3|-3---0---3|

G:----------|----------|----------|----------|
D:----------|----------|----------|----------|
A:-----3---3|-3---3---3|-3---3---3|-3---0---3|
E:----------|----------|----------|----------|

G:----------|----------|----------|----------|
D:----------|----------|----------|----------|  x3
A:----------|----------|----------|----------|
E:-----0---3|-3---3---3|-3---3---3|-3---0---3|

G:----------|----------|----------|----------|
D:----------|----------|----------|----------|
A:-----3---3|-3---3---3|-3---3---3|-3---0---3|
E:----------|----------|----------|----------|

G:----------|----------|----------|----------|
D:----------|----------|----------|----------|
A:----------|----------|----------|----------|
E:-----0---3|-3---3---3|-3---3---3|-3---0---3|

G:----------|----------|----------|----------|
D:----------|----------|----------|----------|  x4
A:----------|---3--3---|----------|---5--5---|
E:---0--0---|----------|---3--3---|----------|

G:----------|----------|----------|----------|
D:----------|----------|----------|----------|  x4
A:----------|----------|----------|----------|
E:-----0---3|-3---3---3|-3---3---3|-3---0---3|

G:----------|----------|----------|----------|
D:----------|----------|----------|----------|
A:-----3---3|-3---3---3|-3---3---3|-3---0---3|
E:----------|----------|----------|----------|

G:----------|----------|----------|----------|
D:----------|----------|----------|----------|  x3
A:----------|----------|----------|----------|
E:-----0---3|-3---3---3|-3---3---3|-3---0---3|

G:----------|----------|----------|----------|
D:----------|----------|----------|----------|
A:-----3---3|-3---3---3|-3---3---3|-3---0---3|
E:----------|----------|----------|----------|

G:----------|----------|----------|----------|
D:----------|----------|----------|----------|
A:----------|----------|----------|----------|
E:-----0---3|-3---3---3|-3---3---3|-3---0---3|

G:----------|----------|----------|----------|
D:----------|----------|----------|----------|
A:----------|----------|---3--3---|---3--3---|
E:---0--0---|---0--0---|----------|----------|

G:----------|----------|----------|----------|
D:----------|----------|----------|----------|
A:----------|----------|---3--3---|---3--3---|
E:---5--5---|---5--5---|----------|----------|

G:----------|----------|----------|----------|
D:----------|----------|----------|----------|  x4
A:----------|---3--3---|----------|---5--5---|
E:---0--0---|----------|---3--3---|----------|

G:----------|----------|----------|----------|
D:----------|----------|----------|----------| x3
A:----------|----------|----------|----------|
E:-----0---3|-3---3---3|-3---3---3|-3---0---3|

(Outro)
G:----------|----------|----------|----------|
D:----------|----------|----------|----------|
A:----------|----------|----------|----------|
E:---0--3---|----------|----------|----------|
  development and support by
dmitry ivanov