rock
 
|tablatures   |lyrics   |discussion forums   |more tabs @ XGuitar.com

U2 tabs

Vertigo guitar tab

Band = U2
Song = Vertigo


easy song


Riff A - x4
e|--(7)-(7)---(7)-(7)-(7) --------------------------------|
B|--(7)-(7)---(7)-(7)-(7)---------------------------------|
G|---x---x-----x---x---x----------------------------------|
D|---x---x-----x---x---x----------------------------------|
A|---x---x-----x---x---x----------------------------------|
E|---x---x-----x---x---x----------------------------------|

Once, doce, trece, catorce

Riff B - x4
e|---------------------------------------|
B|---------------------------------------|
G|---7/9--7/9--7/9-----------------------|
D|---7/9--7/9--7/9---7-7-7-7----5-5------|
A|---5/7--5/7--5/7---7-7-7-7----5-5------|
E|-------------------5-5-5-5----3-3------|

Turn it up loud, captain

Riff A (softer and quietly)

Lights go down
It's dark, the jungle is
Your head can't rule your heart
I'm feeling so much stronger
Than I thought
Your eyes are wide
And though your soul
It can't be bought
Your mind can wander

Riff C - x 2
e|-------------------------------------------------------|
B|-------------------------------------------------------|
G|--5/9--9--9--9---7--7--7--7----------------------------|
D|--5/9--9--9--9---7--7--7--7---5--5--5--5---7--7--7--7--|
A|--7/7--7--7--7---5--5--5--5---5--5--5--5---7--7--7--7--|
E|------------------------------3--3--3--3---5--5--5--5--|

Hello, hello
Hola
I'm at a place called Vertigo
Donde esta
It's everything I wish I didn't know
Except you give me something I can (Riff B - x2) feel
Feel

Riff A (softer and quietly)

The night is full of holes
These bullets rip the sky
Of ink with gold
They twinkle
As the boys play rock and roll
They know that they can't dance
At least they know

e|--12----10----10-----------------------------|
B|-----12----12----12--------------------------|
G|---------------------------------------------|
D|---------------------------------------------|
A|---------------------------------------------|
E|---------------------------------------------|

I can sell the beats
I'm asking for the check
Girl with crimson nails
Has Jesus 'round the neck
Swinging to the music
Swinging to the music

Riff C - x 2

Hello, hello
Hola
I'm at a place called Vertigo
Dond' esta
It's everything I wish I didn't know
But you give me something I can (Riff B - x2) feel
Feel

Riff D - x 3
e|-------------------|--------------------|--------------------|
B|-------------------|--------------------|--------------------|
G|------------7------|--------------------|-----------7--------|
D|-----7/5----7---7--|----5----4-----7----|----7/5----7---7----|
A|-----7/5----5---7--|----5----4-----7----|----7/5----5---7----|
E|-----5/3--------5--|----3----2-----5----|----5/3--------5----|


Shot dead
Shots fall
Show me, yeah

Riff B - x4 (with back riff)
e|--0--0--0--0--0--0---0--0--0--0--0--0--|
B|-10-10-10--9--9--9---9--9--9--7--7--7--|
G|---------------------------------------|
D|---------------------------------------|
A|---------------------------------------|
E|---------------------------------------|

(then)
e|-------19-------17-------19-------17--------15--|
B|-15-17----15-17----15-17----15-17-----15-17-----|
G|------------------------------------------------|
D|------------------------------------------------|
A|------------------------------------------------|
E|------------------------------------------------|

All of this, all of this can be yours
All of this, all of this can be yours
All of this, all of this can be yours
Just give me what I want
And no one gets hurt

Riff C - x 2
Hello, hello
Hola
We're at a place called Vertigo
Dond' esta
Lights go down and all I know
Is that you give me something
Riff C - x 2 (with back riff)

Back Riff(This Seems to fit)
e|-17-16-14----14-16-------------------------|
B|----------17-------15-14-15-14-15-17-17----|
G|-------------------------------------------|
D|-------------------------------------------|
A|-------------------------------------------|
E|-------------------------------------------|

I can feel your love teaching me how
Your love is teaching me how
(Riff B - x2)
How to kneel
Kneel

(Riff B - x2)
Yeah, yeah, yeah, yeah
Yeah, yeah, yeah, yeah
Yeah, yeah, yeah, yeah
Yeah, yeah, yeah, yeah
Em
  development and support by
dmitry ivanov