rock
 
|tablatures   |lyrics   |discussion forums   |more tabs @ XGuitar.com

U2 tabs

Two Hearts Beat As One bass tab

U2 "Two Hearts Beat As One" -BASS TAB
-------------------------------------
steve palmer am560@freenet.carleton.ca

Tune down 1/2 step: Eb Ab Db Gb

Intro:
|-------------------------------------------5-5-----|
|--0-0--------0-0-3-0-3--5-5-5-5--3-3-3--2----------|
|------0-2-3----------------------------------------|
|---------------------------------------------------|

Main riff:
|---------------------------------------------------|
|--0-0--------0-0-3-0-3--5-5-5-5--3-3-3--2-3-2------|
|------0-2-3----------------------------------------|
|---------------------------------------------------|

|---------------------------------------------------|
|--0-0--------0-0-3-0-3--5-5-5-5--3-3-3--2-3-2------|
|------0-2-3----------------------------------------|
|---------------------------------------------------|
(Repeat)

Chorus:
|---------------------------------------------------|
|--3-3-3-0-7---3-3-3-0-7---5-5-5-0-7---5-5-5-0-7----|
|---------------------------------------------------|
|---------------------------------------------------|
(Repeat)


  development and support by
dmitry ivanov