rock
 
|tablatures   |lyrics   |discussion forums   |more tabs @ XGuitar.com

U2 tabs

The Fly bass tab

U2 THE FLY (BASS TAB)
---------------------
tabbed by: steve palmer- am560@freenet.carleton.ca

Verse:
   E                    E                    E
g|--------------------------------------------------------------|
d|--------------------------------------------------------------|
a|-7-7-7-5--7-7-7-7-5---7-7-7-5--7-7-7-7-5---7-7-7-5--7-7-7-7-5-|
E|--------------------------------------------------------------|

   E                    A                    D
g|--------------------------------------------------------------|
d|--------------------------------------------------------------|
a|-7-7-7-5--7-7-7-7-5------------------------5-5-5-3--5-5-5-5-3-|
E|----------------------5-5-5-3--5-5-5-5-3----------------------|

   E                    E
g|--------------------------------------------------------------|
d|--------------------------------------------------------------|
a|-7-7-7-5--7-7-7-7-5---7-7-7-5--7-7-7-7-5----------------------|
E|--------------------------------------------------------------|


Chorus:
   C#m            E              A               A
g|--------------------------------------------------------------|
d|--------------------------------------------------------------|
a|-4-4-4-4-4-4-4-4---------------0-0-0-0-0-0-0-0-0-0-0-0-0-0-0-0|
E|----------------0-0-0-0-0-0-0-0-------------------------------|


Post-Chorus:
   E           E           E          E
g|--------------------------------------------------------------|
d|-2-0---------2-0---------2-0--------2-0-----------------------|
a|-----2-0---------2-0---------2-0--------2-0-------------------|
E|---------3-----------3-----------3----------3-----------------|

Solo:

B    E-A-D-E-B-C#m-E-A

These are the chords given in the ACHTUNG BABY archive, they
are generally correct, though some parts are missing.  It's easy
to figure out the rest.  To play the chords, all notes are
played in eighth notes.

suggestions welcome



THE FLY corrected and with the solo tab
-------

Here's the right way Adam plays the chorus.
The chords in the solo are (in the right order): B  E-A-D-E-C#m-A-E-B

Chorus:
   C#m              E                A               A
G|------------------------------------------------------------------|
D|------------------------------------------------------------------|
A|-4-4-4-4-4-4-4-4--7-7-7-7-7-7-7-7--0-0-0-0-0-0-0-0-0-0-0-0-0-0-0-0|
E|------------------------------------------------------------------|

Solo:
   B
g|--------------|
d|--------------|
a|-2-2-0-2/4~---|  (4 times)
E|--------------|

   E
g|---------------------|
d|---------------------|
a|-7-7-7-5--7-7-7-7-5--|  (6 times)
E|---------------------|

   A                    D
g|-----------------------------------------|
d|-----------------------------------------|
a|----------------------5-5-5-3--5-5-5-5-3-|
E|-5-5-5-3--5-5-5-5-3----------------------|


   E                    E                    C#m
g|--------------------------------------------------------------|
d|--------------------------------------------------------------|
a|-7-7-7-5--7-7-7-7-5---7-7-7-5--7-7-7-7-5---4-4-4-2--4-4-4-4-2-|
E|--------------------------------------------------------------|


   A                    E                     B
g|--------------------------------------------------------------|
d|--------------------------------------------------------------|
a|----------------------7-7-7-5--7-7-7-7-5---2-2-2-0--2-2-2-2-0-|
E|-5-5-5-3--5-5-5-5-3-------------------------------------------|

Then it continues with the chorus...

Tabbed by Alpha  u2alpha@hotmail.com


U2 THE FLY (BASS TAB)
---------------------
tabbed by: steve palmer- am560@freenet.carleton.ca

Verse:
   E                    E                    E
g|--------------------------------------------------------------|
d|--------------------------------------------------------------|
a|-7-7-7-5--7-7-7-7-5---7-7-7-5--7-7-7-7-5---7-7-7-5--7-7-7-7-5-|
E|--------------------------------------------------------------|

   E                    A                    D
g|--------------------------------------------------------------|
d|--------------------------------------------------------------|
a|-7-7-7-5--7-7-7-7-5------------------------5-5-5-3--5-5-5-5-3-|
E|----------------------5-5-5-3--5-5-5-5-3----------------------|

   E                    E
g|--------------------------------------------------------------|
d|--------------------------------------------------------------|
a|-7-7-7-5--7-7-7-7-5---7-7-7-5--7-7-7-7-5----------------------|
E|--------------------------------------------------------------|


Chorus:
   C#m            E              A               A
g|--------------------------------------------------------------|
d|--------------------------------------------------------------|
a|-4-4-4-4-4-4-4-4---------------0-0-0-0-0-0-0-0-0-0-0-0-0-0-0-0|
E|----------------0-0-0-0-0-0-0-0-------------------------------|


Post-Chorus:
   E           E           E          E
g|--------------------------------------------------------------|
d|-2-0---------2-0---------2-0--------2-0-----------------------|
a|-----2-0---------2-0---------2-0--------2-0-------------------|
E|---------3-----------3-----------3----------3-----------------|

Solo:

B    E-A-D-E-B-C#m-E-A

These are the chords given in the ACHTUNG BABY archive, they
are generally correct, though some parts are missing.  It's easy
to figure out the rest.  To play the chords, all notes are
played in eighth notes.

suggestions welcome
  development and support by
dmitry ivanov