rock
 
|tablatures   |lyrics   |discussion forums   |more tabs @ XGuitar.com

U2 tabs

Stay (Faraway, So Close!) bass tab

U2 "Stay (Faraway, so close!)" - Bass tab *correction*
 ------------------------------------------------------
 Tune down 1/2 step

 Opening:

 G------------------------------------------------------
 D-----------------4---4--------------------------------
 A--7---7--------4------------4-7-------------4-7---7---
 E-----------4-7------------7-----5---5---5-7-----------

 G-----------------------------------------------------------
 D-----------------------4---4-------------------------------  (3 times)
 A------4-7---7--------4------------4-7-------------4-7---7--
 E--4-7------------4-7------------7-----5---5---5-7----------

 "You say when it hits you ..."

 G---------------------------------------------------------------------------------------
 D---------------------------------------------------------------------------------------
 A----4-7-------------2-------------2-------------------------------------------2--------
 E--7-----2---2---2-4---2---2---2-4---0---0---0-2-4---0---0---0-2-4-2---2---2-4---2---2--

 G---------------------------------------------------------
 D----------------------4---4------------------------------
 A------4-7---7-------4-----------4-7-------------4-7---7--
 E--5-7-----------4-7-----------7-----5---5---5-7----------

 G-----------------------------------------------------------
 D-----------------------4---4-------------------------------  (3 times)
 A------4-7---7--------4------------4-7-------------4-7---7--
 E--4-7------------4-7------------7-----5---5---5-7----------

 "And if you look ..."

 G----------------------------------------------------------------------------------------------------
 D----------------------------------------------------------------------------------------------------
 A----4-7-------------2-------------2-------------2-------------4-------------4-------------4---------
 E--7-----2---2---2-4---2---2---2-4---4---4---2-4---4---4---4-5---5---5---4-5---5---5---5-7---7(*15)--

 "If I could stay ..."

 G---------------------------------------------------------------------------------------------------------------
 D---------------------------------------------------------------------------------------------------------------
 A--------------2-------------2-------------------------------------------2-------------2------------------------
 E--2---2---2-4---2---2---2-4---0---0---0-2-4---0---0---0-2-4-2---2---2-4---2---2---2-4---0---0---0-2-4---0---0--

 G-----------------------------------------------------------
 D-----------------------------------------------------------
 A------2-------------2-0---0---0-2-4------------------------
 E--2-4---2---2---2-4-----------------0---0---0-2-4---0---0--

 "Faraway, ..."

 G---------------------------------------------------------
 D----------------------4---4------------------------------
 A------4-7---7-------4-----------4-7-------------4-7---7--
 E--5-7-----------4-7-----------7-----5---5---5-7----------

 G-----------------------------------------------------------
 D-----------------------4---4-------------------------------  (2 times)
 A------4-7---7--------4------------4-7-------------4-7---7--
 E--4-7------------4-7------------7-----5---5---5-7----------

 "And if you listen, ..."

 G----------------------------------------------------------------------------------------------------
 D----------------------------------------------------------------------------------------------------
 A----4-7-------------2-------------2-------------2-------------4-------------4-------------4---------
 E--7-----2---2---2-4---2---2---2-4---4---4---2-4---4---4---4-5---5---5---4-5---5---5---5-7---7(*15)--

 "If I could stay, ..."

 G---------------------------------------------------------------------------------------------------------------
 D---------------------------------------------------------------------------------------------------------------
 A--------------2-------------2-------------------------------------------2-------------2------------------------
 E--2---2---2-4---2---2---2-4---0---0---0-2-4---0---0---0-2-4-2---2---2-4---2---2---2-4---0---0---0-2-4---0---0--


 G-------------------------------------------------------------------------------------------------------------------
 D-------------------------------------------------------------------------------------------------------------------
 A------2-------------2-------------4-------------4-------------4-------------2-0---0---0-2-4------------------------
 E--2-4---2---2---2-4---4---4---4-5---5---5---5-7---7---7---5-7---2---2---2-4-----------------0---0---0-2-4---0---0--

 "Oh, oh, hooo ..."

 G---------------------------------------------------------
 D----------------------4---4------------------------------
 A------4-7---7-------4-----------4-7-------------4-7---7--
 E--5-7-----------4-7-----------7-----5---5---5-7----------

 G-----------------------------------------------------------
 D-----------------------4---4-------------------------------  (3 times)
 A------4-7---7--------4------------4-7-------------4-7---7--
 E--4-7------------4-7------------7-----5---5---5-7----------

 G-------------------------------------------------------
 D-----------------------4---4---------------------------  
 A------4-7---7--------4------------4-7-------------4-7--
 E--4-7------------4-7------------7-----5---5---5-7------

 Tabbed by Roberto Cruz
 
 If anyone has any other bass tabs of the greatest band ever (U2 of course!!!!) send them in. 
 zurc@sprint.ca


                        STAY (FARAWAY, SO CLOSE !)


Tune down 1/2 step


  Faraway, ...

g|-------------------------------------------------------|
d|-----------------4---4---------------------------------|
a|--7---7--------4------------4-7-------------4-7---7----|
e|-----------4-7------------7-----5---5---5-7------------|



  the following passage is the one played during the verses
  (repeat it until : " If I could stay ...")

g|-----------------------------------------------------------|
d|-----------------------4---4-------------------------------|
a|------4-7---7--------4------------4-7-------------4-7---7--|
e|--4-7------------4-7------------7-----5---5---5-7----------|



  If I could stay ...

g|-------------------------------------------------------------------------|
d|-------------------------------------------------------------------------|
a|----4-7-------------2-------------2---------------------------2----------|
e|--7-----2---2---2-4---2---2---2-4---0---0---0-2-4-2---2---2-4---2---2----|


g|-------------------------------------------------------------------------|
d|-------------------------------------------------------------------------|
a|------2-------------2-------------2-------------4-------------4----------|
e|--2-4---2---2---2-4---2---2---2-4---4---4---4-5---5---5---5-7---7---7----|


g|-------------------------------------------------------------------------|
d|-------------------------------------------------------------------------|
a|----------------------2-0---0---0-2-4------------------------------------|
e|--7-7-7--/2---2---2-4-----------------0---0---0-2-4---0---0--------------|


g|-------------------------------------------------------------------------|
d|----------------------4---4----------------------------------------------|
a|------4-7---7-------4-----------4-7-------------4-7---7------------------|
e|--5-7-----------4-7-----------7-----5---5---5-7--------------------------|



tabbed by Thierry VAUDELIN
vaudelin@sphex.eseo.fr
  development and support by
dmitry ivanov