rock
 
|tablatures   |lyrics   |discussion forums   |more tabs @ XGuitar.com

U2 tabs

Rejoice guitar tab

REJOICE

tabbed by: saarikan@ameba.lpt.fi

(tune down half step)

intro:

N.C.
e|------------------------|-----------------------|-------------------|----------|
b|---------17-------------|-----17----------------|-15-17-------------|----------|
g|-14-14----14-17------14-|-14----14-17-----14-17-|------------14--14-|----------|


e|------------------------|-----------------------|------------------|---------|
b|---------17-------------|-----17----------------|-15--17----15-17--|---------|
g|-14-14----14-17------14-|-14----14-17-----14-17-|------------------|---------|


   Am                                                               D
e|------------------------|-----------------------|-------------------|----------|
b|---------17-------------|-----17----------------|-15-17-------------|----------|
g|-14-14----14-17------14-|-14----14-17-----14-17-|------------14--14-|----------|


  Am                                                                D
e|------------------------|-------------------15----|----------------|----------|
b|---------17-------------|-----17------------------|--14------------|----------|
g|-14-14----14-17------14-|-14----14-17-----14------|--------14------|----------|


      A
It's falling it's falling

                                                   D
And outside a buildings comes tumbling down  

       Am
And inside a child on the ground

                                  D
Says he'd do it again 

                             A
And what am I to do

G                          D
What in the world am I to say

             C#                     A
There's nothing else to do

      G                                D
He says he'll change the world someday

   C#   Am
I rejoice


This morning I fell out og my bed when I woke up
To what he has said
And maybe it's crazy
But I'm too lazy to lie

And what am I to do
Just tell me what amI supposed to say
I'll can't change the world
But I can change the world in me
I rejoice

 A           G    C#    Am
Rejoice... oh rejoice

(gtr. same as intro)

And what am I to do
Just tell me what amI supposed to say
I'll can't change the world
But I can change the world in me
I rejoice

(drum solo)

I don't know what to change

         Am - D
Rejoice...
  development and support by
dmitry ivanov