rock
 
|tablatures   |lyrics   |discussion forums   |more tabs @ XGuitar.com

U2 tabs

Red Light guitar tab

Red Light
				   u2

Tune Down 1/2 Step
		           VERSE    my love.....
                     x4    (hold)                                          x4
|--------------|-------|------------|----------|---------|---------|----------|
|---10--10--x--|---8---|--10~~~~~~--|----1---1-|---3---3-|---------|----------|
|*---9---9--x--|---7--*|---9~~~~~~--|*-2---2---|-2---2---|-4---4---|-2-0-0-0-*|
|*---7---7--x--|---5--*|---7~~~~~~--|*---------|---------|---5---5-|---------*|
|--------------|-------|------------|----------|---------|---------|----------|
|--------------|-------|------------|----------|---------|---------|----------|
           Riff A				      Riff B

							      (n.h.)
				   |---------------|-------|---------|
				   |--10--10-------|---8---|--7------|
Play Riff A, every other one play  |---9---9-------|---7---|----7--5-|
				   |---7---7-5-7-7-|---5---|---------|
				   |---------------|-------|---------|
				   |---------------|-------|---------|




|-----------|------5------|---------|
|-----3-----|-------------|----2----|
|-----------|-------------|*---2---*|
|-----------|-------------|*---2---*|
|-----------|-------------|---------|
|-----------|-------------|---------|



Play Riff A again under sax solo



  Dah  Dah   Dah  Dah
|----------------------|--------|-------|
|--10---12---13---12---|--------|-------|
|*--9---11---12---11--*|----2---|---4---|
|*--7----9---10----9--*|----2---|-------|
|----------------------|----0---|-------|
|----------------------|--------|-------|



Play Riff B



(softly, fading out)

|----------|----------|
|-----8----|----10----|
|*----7----|-----9---*|
|*----5----|-----7---*|
|----------|----------|
|----------|----------|


			TRANSCRIBED BY: STEVE FORD
  development and support by
dmitry ivanov