rock
 
|tablatures   |lyrics   |discussion forums   |more tabs @ XGuitar.com

U2 tabs

October bass tab

U2
October
From the album October
Bass Tab
Standard Tuning (EADG)
Play REALLY slowly

Im pretty sure this is all there is in the song
Listen to it to get the timing

Bass comes in with Bono at 1:28

G-----------------------
D-----------------------
A-------------------3---
E-5--5---5--5-3--3----3-

at 1:39
G-----------------------------------
D-------------------------------5---
A----------------------------5-----5
E-5--5---0-3-4---5--5----3----------

This is my first tab as you can probly see
Please rate this
  development and support by
dmitry ivanov