rock
 
|tablatures   |lyrics   |discussion forums   |more tabs @ XGuitar.com

U2 tabs

New York bass tab

U2,New York.
 Tabbed by felipe,felipe_u2@hotmail.com.
  
U2 \" NEW YORK \"
All that you can't leave behind


1/2 tune down

VERSE 
G:--------------------------------------------------------------------
D:--------------------------------------------------------------------
A:----0-0-0-0-0-0-0-0-----------------3-3-3-3-3-3-3-3-----------------
E:--------------------3-3-3-3-3-3-3-3-----------------3-3-3-3-3-3-3-3-

CHORUS SAME VERSE


U2 \" NEW YORK \" LIVE

VERSE
G:--------------------------------------------------------------------
D:--------------------------------------------------------------------
A:----0-0-0-0-0-0-0-0-----------------3-3-3-3-3-3-3-3-----------------
E:--------------------3-3-3-3-3-3-3-3-----------------3-3-3-3-3-3-3-3-

CHORUS
G:--------------------------------------------------------------------------------
D:------------------------------------------------------10-10-10-10-10-10-10-10---
A:----12-12-12-12-12-12-12-12--10-10-10-10-10-10-10-10----------------------------
E:--------------------------------------------------------------------------------

G:------------------------------------------------
D:------------------------------------------------
A:-------10-10-10-10-10-10-10-10------------------
E:------------------------------------------------

END OF CHORUS
G:----------------------
D:----------------------
A:---------12\\\\\\--------
E:----------------------

VERSE

CHORUS

BRIDGE (REPEAT 12)
G:-------------------------------------------------
D:-------------------------------------------------
A:----------10-12-10-------------------------------
E:-------------------12-10-12-10-12----------------

VERSE UNTIL THE END


corrections to: felipe_u2@hotmail.com

 
:: Ultimate Guitar Archive :: 
http://www.ultimate-guitar.com 



  development and support by
dmitry ivanov