rock
 
|tablatures   |lyrics   |discussion forums   |more tabs @ XGuitar.com

U2 tabs

New Years Day Live bass tab

New Year's Day
U2
Live from Under A Blood Red Sky

Transcribed by Alex Stroshane (Edge2693@hotmail.com)

I transcribed this from the UABRS video, it should be just fine.
It's also easier to play than the other ones at the archive.

Main Riff

G------------------------------------------------------------------|
D-------10-----------------2--------------5--------------5---------|
A-12-12----12--12-12-0-3-3---3--3-3\7-7-7---7--7-7-0-7-7---7--7-7\-|
E------------------------------------------------------------------|

Chorus Riff

*=repeat these notes

G--------------------------------------------------------|
D-------10-----------------2-----------------------------|
A-12-12----12--12-12-0-3-3---3--3-3\10-10*-8*-12*-10*-8*-|
E--------------------------------------------------------|

That should be it. The studio version is almost the same.
Just listen to the song to figure out when to play these riffs.
Enjoy!
  development and support by
dmitry ivanov