rock
 
|tablatures   |lyrics   |discussion forums   |more tabs @ XGuitar.com

U2 tabs

Love And Peace Or Else guitar tab

Love and Peace or Else (Leak) ==> Tabbed By DiscothequeLP  (October 13, 2004)



Standard Tuning



There are basically 3 parts.


Intro (?): 

This first part is the first 10 seconds of the 3:37 leak

e|----------|
B|----------|
G|-5/7--5/7-|
D|-5/7--5/7-| (about 5x)
A|-3/5--3/5-|
E|----------|




Verse:


This part is played during each chorus when Bono sings

   D-U--D-U---D--U---D--U----D-U--D-U---D-U--D-U          <== Strum Pattern
e|-----------------------------------------------|
B|-----------------------------------------------|
G|-7-7--7-7---10-10--10-10---7-7--7-7------------|
D|-7-7--7-7---10-10--10-10---7-7--7-7---5-5--5-5-|      (8x)
A|-5-5--5-5---8--8---8--8----5-5--5-5---5-5--5-5-|
E|--------------------------------------3-3--3-3-|





Chorus:

 
   D-U--D-U--D-U--D-U--D-U--D-U--D-U--D-U                 <== Strum Pattern
e|----------------------------------------
B|----------------------------------------
G|-5-5--5-5--5-5--5-5--5-5--5-5--5-5--5-5-
D|-5-5--5-5--5-5--5-5--5-5--5-5--5-5--5-5-
A|-3-3--3-3--3-3--3-3--3-3--3-3--3-3--3-3-
E|----------------------------------------

   I know...   


   D-U--D-U---D--U---D--U----D-U--D-U---D-U--D-U          
e|-----------------------------------------------
B|-----------------------------------------------
G|-7-7--7-7---10-10--10-10---7-7--7-7------------
D|-7-7--7-7---10-10--10-10---7-7--7-7---5-5--5-5-      
A|-5-5--5-5---8--8---8--8----5-5--5-5---5-5--5-5-
E|--------------------------------------3-3--3-3-

   It's easy, on my....


   D-U--D-U--D-U--D-U--D-U--D-U--D-U--D-U
e|----------------------------------------
B|----------------------------------------
G|----------------------------------------
D|-7-7--7-7--7-7--7-7--7-7--7-7--7-7--7-7-
A|-7-7--7-7--7-7--7-7--7-7--7-7--7-7--7-7-
E|-5-5--5-5--5-5--5-5--5-5--5-5--5-5--5-5-

   My heart...

e|----------------------------------------------
B|----------------------------------------------
G|----------------------------------------------
D|-----------2--5--4--------5--4--------5--4----
A|-3----5-------------5--3--------5--3--------3-
E|----------------------------------------------

     This love and peace (?)...


   D-U--D-U---D--U---D--U----D--D--D--D                  

e|--------------------------------------|
B|--------------------------------------|
G|-7-7--7-7---10-10--10-10---7--5--4--5-|
D|-7-7--7-7---10-10--10-10---7--5--4--5-|  (2x)
A|-5-5--5-5---8--8---8--8----5--3--2--3-|
E|--------------------------------------|


This Love and Peace!





I can't hear the quiet part, but I will do the solo soon!

  development and support by
dmitry ivanov