rock
 
|tablatures   |lyrics   |discussion forums   |more tabs @ XGuitar.com

U2 tabs

Lemon bass tab

U2 "Lemon" - Bass tab *correction*
 ----------------------------------

 I tried to play this song along with the cd but there were some parts who didn't fit.
 So I corrected the tabs that were posted. I tabbed it like the bass tab Steve posted.
 I think that it sounds better that way.

 Main Riff:
 (At the beginning it goes like this)

 G|--------------------------------------------------------------
 D|-5-4-------------5-------------5-4-------------5--------------
 A|-----7-5-7-7-------7-5-7-5-7-------7-5-7-7-------7-5-7--------
 E|-------------5-----------------------------5-----------5-7----

 After the first pre-chorus (and I feel...)

 G|------------------------------------------------------------------------------------------
 D|-5--------------5--------------5--------------5-------------5--------------5--------------
 A|----7-5-7-7--------7-5-7----------7-5-7-7--------7-5-7---------7-5-7-7--------7-5-7-5-7---
 E|------------5------------5-7--------------5-----------5-7--------------5------------------

 It doesn't always goes like this, but it would be to long to tab the real thing.
 Somewhere in the middle of the song where ther's the synthesizer part, Adam does a little
 riff that goes like this
 
 G|---------------
 D|-5------------- then back to the main riff
 A|---7-5---7-5-7- 
 E|---------------
 
 At the last part where they sing ("a man makes a picture...") it goes like the main riff
 at the beginning and fades out.
 The pre-chorus and the chorus stay the same as they were posted. 

 Tabbed by Roberto Cruz
 zurc@sprint.ca

--------------------------------------------------

U2 "Lemon" -BASS TAB
--------------------
steve palmer am560@freenet.carleton.ca

Tune down 1/2 step: Eb Ab Db Gb


This song is made up of three parts:

1. Main Bass Riff:

|------------------------------------------------------------|
|--5---------------5-------------5---------------5-----------|
|-----7-5-7-----------7-5-7---------7-5-7-----------7-5-7----|
|-----------5-7-------------5-------------5-7-------------5--|


2. Pre-Chorus: ("and i feel...")

|------------------------------------------------------------|
|------------------------------------------------------------|
|--5-5-5-5--5-5-5-5--0-0-0-0--3-3-3-3------------------------|
|------------------------------------------------------------|


3. Chorus: ("midnight...")

|------------------------------------------------------------|
|--5-5-5-5---------------------------------------------------|
|-----------5-5-5-5--3-3-3-3--3-3-3-3------------------------|
|------------------------------------------------------------|

*lemon bass correction

Main Riff~!

|------------------------------------------------------------|
|--5-4-2-0-2-2----------5--2-0-2-----------------------------|
|--------------------------------0-2-------------------------|
|--------------0---------------------------------------------|
(- This is repeated as many times as Mr. Clayton deems worthy. :) -)


It sounds much better along with (and is more accurate to) the song than
what was previously posted ... no offense to Steve, of course! :)

Madam Adam~!   ":-)
tyrantlizard@geocities.com
  development and support by
dmitry ivanov