rock
 
|tablatures   |lyrics   |discussion forums   |more tabs @ XGuitar.com

U2 tabs

Lady With The Spinning Head bass tab

U2 "Lady With The Spinning Head" from the "One" single
transcribed by eric schaaf (skekas@michiana.org)

intro:

G-----------------------------------------------------------------------------
D-----------------------------------------------------------------------------
A--7-7-7-5-7-7-5-7-5--7-7-7-5-7-7-5-7-5---------------------5-5-5-3-5-5-3-5-3-
E----------------------------------------5-5-5-3-5-5-3-5-3--------------------

G----------------------------------------
D----------------------------------------
A--7-7-7-5-7-7-5-7-5--7-7-7-5-7-7-5-7-5--
E----------------------------------------

main line:

G-----------------------------------------------------------------------------
D-----------------------------------------------------------------------------
A--7-7-7-5-7-7-5-7-5--7-7-7-5-7-7-5-7-5--7-7-7-5-7-7-5-7-5--7-7-7-5-7-7-5-7-5-
E-----------------------------------------------------------------------------

G-----------------------------------------------------------------------------
D-----------------------------------------------------------------------------
A---------------------5-5-5-3-5-5-3-5-3--7-7-7-5-7-7-5-7-5--7-7-7-5-7-7-5-7-5-
E--5-5-5-3-5-5-3-5-3----------------------------------------------------------

chorus line: play twice

G-----------------------------------------------------------------------------
D-----------------------------------------------------------------------------
A--4-4-4-2-4-4-2-4-2---------------------7-7-7-5-7-7-5-7-5--------------------
E---------------------5-5-5-3-5-5-3-5-3---------------------7-7-7-5-7-7-5-7-5-

  development and support by
dmitry ivanov