rock
 
|tablatures   |lyrics   |discussion forums   |more tabs @ XGuitar.com

U2 tabs

Is That All? guitar tab

Is That All?

Music by U2
Lyrics by Bono
Transcribed by Brandon Leniart 


tune 1/2 step down
(with delay)
1----------------------------------------------------------------
2---12--12--12--10-----12--12--12--10------12--12--12------------
3---10--10--10--9------10--10--10--9-------10--10--10------------
4---9---9---9---7------9---9---9---7-------9---9---9---9-9-9-9-9-
5----------------------------------------------------------------
6----------------------------------------------------------------

0h

1----------------------------------                      
2------------12--(12)--(12)--(12)--         
3---4--------10--(10)--(10)--(10)--                     
4---4--------9---(9)---(9)---(9)---                     
5---2------------------------------                       
6----------------------------------   

1------------------------2--(2)--(2)--(2)--       
2------------------------3--(3)--(3)--(3)--
3---2------------4-------4--(4)--(4)--(4)--
4---2------------4------------------------- 
5---0------------2------------------------- 
6------------------------------------------         


Oh, singing this song makes me angry
I'm not angry with you
But is that all?

*ocassionally hit open 1st string and D on 2nd string 
 together, let notes ring
1------------------0----------------------             
2---------3------------------3---------3--
3---4----------4-------4---------4--------      
4-----------------------------------------        
5-----------------------------------------       
6-----------------------------------------       

1--------------------0------------------------0--------               
2---------3----------------------3------------------3--               
3---4-----------4---------4--------------4-------------            
4------------------------------------------------------        
5------------------------------------------------------              
6------------------------------------------------------  

Singing this song makes me happy
I'm not happy with you
Singing this song makes me pale
But is that all?
Is that all?
Is that you want from me?

Solo:
1-----------------------------
2-----------------------------
3-----------------------------
4-----------------------------
5---2---2/5---5---7---4---0---
6-----------------------------

1--------------------------------------------
2--------------------------------------------
3--------------------------------------------
4--------------------------------------------
5---2---2/5---5---7---4---0---3---2---3---5--
6--------------------------------------------

Ending uses 2 chords, Bm and A5:
1---2-----------0---                          
2---4-----------0---                              
3---4-----------2---                        
4---4-----------2---                         
5---2-----------0---                       
6---2---------------                               

--These days run away like horses over the hill--
  development and support by
dmitry ivanov