rock
 
|tablatures   |lyrics   |discussion forums   |more tabs @ XGuitar.com

U2 tabs

If You Wear That Velvet Dress bass tab

U2 "If you wear that velvet dress" - Bass tab
 ---------------------------------------------

 Here's the main riff, it's almost the same thing that the tab that was posted first.

 G|-------------------------------------------------------------
 D|----------7----7--------------------7----7-------------------
 A|--5----5--------------------5----5---------------------2-5---
 E|------------------7----5--------------------7----5-3-5-------

 Interlude:

 G|--------------------------------------------------------------------------------------
 D|-*7*--7777-----------*7*--7777-----------*7*--7777------------------------------------
 A|-----------*9*--9999-----------*5*--9999-----------*9*--9999-*7*--7777-*5*--5555-7777-
 E|--------------------------------------------------------------------------------------

 * = repeat that note and slowly fade out

 That's it
 
 Tabbed by Roberto Cruz
 zurc@sprint.ca

---------------------------------------------------


If You Wear That Velvet Dress Bassline

from: Chris Petersen
      Spyguy01@ix.netcom.com


Tuning in Eb
G-------------------------------------------------------------------------------
D----------7----7-----------------------------------7--7------------------------
A---5---5-----------------------------------5---5----------------------------5--
E--------------------7----5--4----5----8------------------7----5--4--5--8-------


Interlude  (Edge’s echo riff)  Bass played with strong reverb.
G-------------------------------
D----7---------7----------7---
A------------------------------
E------------------------------


If You Wear That Velvet Dress - Bass
tabbed by: john couillard
          brooklynfella@hotmail.com

G----------------------------------------
D---------------------------------------- after 4 hit an
A---------------4------4--2-----2-----4-- open E then 
E-2---------2h5--------------------5----- proceed.

thats it the whole tab to velvet dress live see ya guys..john
  development and support by
dmitry ivanov