rock
 
|tablatures   |lyrics   |discussion forums   |more tabs @ XGuitar.com

U2 tabs

If God Will Send His Angels bass tab

U2 IF GOD WILL SEND HIS ANGELS (BASS TAB)
------------------------------------------
The bass doesn't come in until Bono sings the last 
line of the first chorus: 
Verse/Chorus:
------   
Tune Normally

Main riff
g|------------------------------|
d|-4-4-6-----------4-4-6--------|
a|-------4-------4-------6---2--|
E|------------------------------|




 PRECHORUS:
          G           C
g|----------------------------------|
d|----------------------------------|
a|---------------0--3-3--3--3-3-3-0-|
E|-3-3--3--3-3-3--------------------|

It's the blind leading the blond


          G          Am
g|----------------------------------|
d|----------------------------------|
a|------------------0-0--0--0-0-0-4-|
E|-3-3--3--3-3-3-4------------------|

It's the stuff the stuff of country songs




That's pretty much the whole song. HAve fun!


Tabbed by Mark Linwood


Hint suggesstions or comments to (Rlinwood@powerup.com.au)
  development and support by
dmitry ivanov