rock
 
|tablatures   |lyrics   |discussion forums   |more tabs @ XGuitar.com

U2 tabs

I Still Havent Found What Im Looking For bass tab

U2-" I STILL HAVEN'T FOUND WHAT I'M LOOKING FOR" by Milos Kalember
---------------------------------------------------------
Milos Kalember withorwithoutyou@u2fan.net
Hi!This is actually right tab for this great song.all bass tabs for this song are wrong!!Also the Joshua Tree SongBook is quite wrong so this is what Adam play!!!Just listen and you will see!!!!
Tune down 1/2 step to: Eb Ab Db Gb

*This is main riff of the song!
 Play 8 times                     
G-------------------------------------------------------------------|
D-------------------------------------------------------------------|
A--4-4-4-1-2--4-4-4-1-2--4-4-4-1-2--4-4-4-1-2--4-4-4-1-2--4-4-4-1-2-|
E-------------------------------------------------------------------|

Then, Play 2 times
G-------------------------------------------------------------------|
D--4-4-4-1-2--4-4-4-1-2---------------------------------------------|
A-------------------------------------------------------------------|
E-------------------------------------------------------------------|
                 Only to be with you....Only to be with you

again but this time 6 times
G-------------------------------------------------------------------|
D-------------------------------------------------------------------|
A--4-4-4-1-2--4-4-4-1-2--4-4-4-1-2--4-4-4-1-2--4-4-4-1-2--4-4-4-1-2-|
E-------------------------------------------------------------------|

Then, Play 2 times
G-------------------------------------------------------------------|
D--4-4-4-1-2--4-4-4-1-2---------------------------------------------|
A-------------------------------------------------------------------|
E-------------------------------------------------------------------|
then, before chorus 2 times again
G-------------------------------------------------------------------|
D--4-4-4-1-2--4-4-4-1-2---------------------------------------------|
A-------------------------------------------------------------------|
E-------------------------------------------------------------------|

Chorus!
G--2-2-2-2--4-------------------------2-2-2-2-4---------------------|
D-------------4---------------------------------4-------------------|
A----------------4-4-4-1-2--4-4-4-1-2-------------4-4-4-1-2---------|
E-------------------------------------------------------------------|

Ok!That's all!Your job is only to listen timing and there not will be problem!!Enjoy!


=================================================================



U2 "I Still Haven't Found What I'm Looking For" -BASS TAB
---------------------------------------------------------
steve palmer am560@freenet.carleton.ca

Tune down 1/2 step to: Eb Ab Db Gb

This song is pretty straight forward

Verse:
   D              D              D              D 
|-------------------------------------------------------------------|
|-------------------------------------------------------------------|
|--5-5-5--5-------5-5-5--5-------5-5-5--5-------5-5-5--5------------|
|-----------5-7------------5-7------------5-7------------5-7--------|

   G              G              D              D
|-------------------------------------------------------------------|
|--5-5-5--5-------5-5-5--5------------------------------------------|
|-----------5-7------------5-7---5-5-5--5-------5-5-5---5-----------|
|-----------------------------------------5-7-------------5-7-------|


Chorus:
   A              G              D               D
|-------------------------------------------------------------------|
|--7-7-7-7--------5-5-5-5-------------------------------------------|
|--------------------------------5-5-5--5--------5-5-5--5-----------|
|-----------------------------------------5-7-------------5-7-------|


========================================================================

U2 - "I Still Haven't Found What I'm Looking For" - Bass Tab

common time(4/4)
standard tuning(EADG)

INTRO:

|-----------------|
|*---------------*|
|*-4-4-4-----2-4-*|
|----------4------|
   1 2 3 & a 4 &     

VERSE: 
              (x4)               (x2)              (x2)
|-----------------|------------------|-----------------|
|*---------------*|*-4-4-4----------*|*---------------*|
|*-4-4-4-----2-4-*|*-----------2-4--*|*-4-4-4-----2-4-*|
|----------4------|----------4-------|----------4------|
   1 2 3 & a 4 &     1 2 3 & a 4 &      1 2 3 & a 4 &

CHORUS:
                                          (x2)
|-----------------|---------|-----------------|
|-----------------|-4-------|*---------------*|
|-----------------|---------|*-4-4-4-----2-4-*|
|-4-4-4-4-4-4-4-3-|---------|---------4-------|
  1 & 2 & 3 & 4 &   1 2 3 4    1 2 3 & a 4 &

MIDDLE BIT:
              (x6)               (x2)              (x2)
|-----------------|------------------|-----------------|
|*---------------*|*----------------*|*---------------*|
|*-4-4-4-----2-4-*|*-----------2-4--*|*-4-4-4-----2-4-*|
|----------4------|--2-2-2---4-------|----------4------|
   1 2 3 & a 4 &     1 2 3 & a 4 &      1 2 3 & a 4 &

By: Johari Taylor
E-mail: viking@powerup.com.au
  development and support by
dmitry ivanov