rock
 
|tablatures   |lyrics   |discussion forums   |more tabs @ XGuitar.com

U2 tabs

Heartland bass tab

U2 "Heartland" - Bass tab *correction*
 --------------------------------------
 
 Well, I find that the main riff that was originaly posted for this song
 is not very accurate, so here's how it goes

 Main riff:
  
 G|------------------
 D|------------------
 A|-5-5-5-0-3-5-3-0--
 E|------------------

 The rest of the song is the same as the bass tab that was posted for this song.

 Bass tab by Roberto Cruz
 Comments, suggestions, questions welcome
 zurc@sprint.ca



Here's the tabs to Heartland

Intro
E-3-3-3-3-3-3-3-3-3-3-3-3-3-3-3-3- 
(repeat for a while)
2nd part of intro
A---------------------------------3-3-3-3-3-3-3-3-3-3-3-3-3-3-3-3
E-3-3-3-3-3-3-3-3-3-3-3-3-3-3-3-3--------------------------------

A-1-1-1-1-1-1-1-1-1-1-1-1---------3-3-3-3-3-3-3-3-3-3-3-3-3-3-3-3
E-------------------------3-3-3-3--------------------------------
(only once)
Verse

A-3-5-3-0-3-5-3-0-3-5-3-0-3-5-3-0
(repeat again)

Pre chorus
A-1-1-1-1-1-1-1-1-1-1-1-1---------3-3-3-3-3-3-3-3-3-3-3-3-3-3-3-3
E-------------------------3-3-3-3--------------------------------
(twice, I think, maybe three times)

Chorus:

G----------------------------------------------------------------
D----------------------------------------------------------------
A-------------------------1-1-3-3--------------------------------
E-3-3-3-3-3-3-3-3-3-3-3-3---------1-1-1-1-1-1-1-1-1-1-1-1-1-1-1-1

Mike Parsons
mmp@hawking.unh.edu
  development and support by
dmitry ivanov