rock
 
|tablatures   |lyrics   |discussion forums   |more tabs @ XGuitar.com

U2 tabs

Grace bass tab

Grace
U2
All That You Can't Leave Behind
Tabbed By Larry

~ ==>	Extend note time
NOTE ==>Each BLOCK ( |--X--| ), no matter how long it is, represents 4 
times.

     This is a beautiful song, we can split it in 3 very simple bass 
figures:

	* FIGURE 1

G:|-------------|-------------|
D:|---------10~-|---------10~-|
A:|-8-10--8-----|-8-10--8-----|
E:|-------------|-------------|

	* FIGURE 2

G:|---------10~-|---------10~-|
D:|-8-10--8-----|-8-10--8-----|
A:|-------------|-------------|
E:|-------------|-------------|

	* FIGURE 3

G:|------------12~-|-----------12~-|
D:|-10-12--10------|-10-12--10-----|
A:|----------------|---------------|
E:|----------------|---------------|

So, the song goes like this:

Fig 1 (x4)
Fig 2 (x2)
Fig 1 (x2)
Fig 3 (x1)
Fig 2 (x1)
Fig 1 (x2)

Repeat all over the song

OK, that's it... Suggs, comms, corrections, bad words: rhimorse@hotmail.com

AMOR Y PAZ
  development and support by
dmitry ivanov