rock
 
|tablatures   |lyrics   |discussion forums   |more tabs @ XGuitar.com

U2 tabs

Gone bass tab

U2 "Gone" -BASS TAB
--------------------

Tune down 1/2 step: Eb Ab Db Gb

Intro:
|---------------|   This is the real cool
|---------------|   slide bit played before
|-7/13\7/12\7---|   the main riff.
|---------------| 

Main Bass Riff:

|---------------------|  Thats all it is repeated over 
|---------------------|   again
|-----7-0-5-7-0-5-7---|   
|-0-0---------------7-| 


then when bono sings

Pre-chorus:

"good bye.."
|-------------------------------------------------|
|-------------------------------------------------|
|-10-10-10-10-5-5-5-5-10-10-10-10-7-7-7-7-3-3-3-3-|
|-------------------------------------------------|

Chorus:
  
|---------------------------------|
|----------------10-12-12-10-12---|
|-12-12-12----10------------------|
|----------12---------------------|

The rest of the song is basic in structure 
and just repeats the main bits

During the interlude there is no bass 
until the lyrics "you hurt yourself...."

the outro is just the main riff

Tabbed by Mark Linwood


Hint suggesstions or comments to (Rlinwood@powerup.com.au)
  development and support by
dmitry ivanov