rock
 
|tablatures   |lyrics   |discussion forums   |more tabs @ XGuitar.com

U2 tabs

Fast Cars bass tab

#---------------------------------PLEASE NOTE---------------------------------#
#This file is the author's own work and represents their interpretation of the#
#song. You may only use this file for private study, scholarship, or research.#
#-----------------------------------------------------------------------------#

Song: Fast Cars (Bonus Track)
Artist: U2
Album: How To Dismantle An Atomic Bomb
Tabbed by: Jase Warner (trip_through_your_wires@hotmail.com)

Standard Tuning (E,A,D,G)

Intro:

G|---------------------------------|---------------------------------|
D|*--------------------------------|--------------------------------*|
A|*------------3b------------------|-------------3b-----------------*|
E|-5-5---5-3-------5-5---5-3-0-3-0-|-5-5---5-3-------5-5---5-3-0-3-0-|

G|---------------------------------|---------------------------------|
D|*--------------------------------|--------------------------------*|
A|*------------3b------------------|-------------3b-----------------*|
E|-5-5---5-3-------5-5---5-3-0-3-0-|-5-5---5-3-------5-5---5-3-0-3-0-|

First Verse:

G|---------------------------------|---------------------------------|
D|*--------------------------------|--------------------------------*|
A|*--------------------------------|--------------------------------*|
E|-5-----5-6-6~----5-----5-3-----3-|-5-----5-6-6~----5-----5-3-----3-|

G|---------------------------------|---------------------------------|
D|*--------------------------------|--------------------------------*|
A|*--------------------------------|--------------------------------*|
E|-5-----5-6-6~----5-----5-3-----3-|-5-----5-6-6~----5-----5-3-----3-|

Chorus:

G|---------------------------------|---------------------------------|
D|*--------------------------------|--------------------------------*|
A|*------------3b------------------|-------------3b-----------------*|
E|-5-5---5-3-------5-5---5-3-0-3-0-|-5-5---5-3-------5-5---5-3-0-3-0-|

G|---------------------------------|---------------------------------|
D|*--------------------------------|--------------------------------*|
A|*------------3b------------------|-------------3b-----------------*|
E|-5-5---5-3-------5-5---5-3-0-3-0-|-5-5---5-3-------5-5---5-3-0-3-0-|

G|---------------------------------|---------------------------------|
D|*--------------------------------|--------------------------------*|
A|*3-3-3-3-3-3-3-3-----------------|--------------------------------*|
E|-----------------5-5-5-5-5-5-5-5-|-0-0-0-0-0-0-0-0-0-0-#-----------|

Break:

G|-----|---------------------------------|---------------------------------|
D|*---*|*--------------------------------|--------------------------------*|
A|*---*|*--------------------------------|--------------------------------*|
E|-12\-|-5-----5\6-6~----5-5---5-3-----3-|-5-----5\6-6~----5-5---5-3-----3-|

G|---------------------------------|---------------------------------|
D|*--------------------------------|--------------------------------*|
A|*--------------------------------|--------------------------------*|
E|-5-----5\6-6~----5-5---5-3-----3-|-5-----5\6-6~----5-5---5-3-----3-|

Second Verse:

G|---------------------------------|---------------------------------|
D|*--------------------------------|--------------------------------*|
A|*--------------------------------|--------------------------------*|
E|-5-----5-6-6~----5-----5-3-----3-|-5-----5-6-6~----5-----5-3-----3-|

G|---------------------------------|---------------------------------|
D|*--------------------------------|--------------------------------*|
A|*--------------------------------|--------------------------------*|
E|-5-----5-6-6~----5-----5-3-----3-|-5-----5-6-6~----5-----5-3-----3-|

Chorus:

G|---------------------------------|---------------------------------|
D|*--------------------------------|--------------------------------*|
A|*------------3b------------------|-------------3b-----------------*|
E|-5-5---5-3-------5-5---5-3-0-3-0-|-5-5---5-3-------5-5---5-3-0-3-0-|

G|---------------------------------|---------------------------------|
D|*--------------------------------|--------------------------------*|
A|*------------3b------------------|-------------3b-----------------*|
E|-5-5---5-3-------5-5---5-3-0-3-0-|-5-5---5-3-------5-5---5-3-0-3-0-|

G|---------------------------------|---------------------------------|
D|*--------------------------------|--------------------------------*|
A|*3-3-3-3-3-3-3-3-----------------|--------------------------------*|
E|-----------------5-5-5-5-5-5-5-5-|-0-0-0-0-0-0-0-0-0-0-#-----------|

Break:

G|---------------------------------|---------------------------------|
D|*--------------------------------|--------------------------------*|
A|*--------------------------------|--------------------------------*|
E|-5-5---3-5-5-----5-5---3-6-6-----|-5-5---3-5-5-----5-5---3-6-6-----|

G|---------------------------------|---------------------------------|
D|*--------------------------------|--------------------------------*|
A|*--------------------------------|--------------------------------*|
E|-5-5---3-5-5-----5-5---3-6-6-----|-5-5---3-5-5-----5-5---3-6-6-----|

Bridge:

G|---------------------------------|---------------------------------|
D|*--------------------------------|--------------------------------*|
A|*3-3-3-3-3-3-3-3-3-3-3-3-3-3-3-3-|--------------------------------*|
E|---------------------------------|-3-3-3-3-3-3-3-3-3-3-3-3-3-3-3-3-|

G|---------------------------------|---------------------------------|
D|*--------------------------------|--------------------------------*|
A|*5-5-5-5-5-5-5-5-5-5-5-5-5-5-5-5-|--------------------------------*|
E|---------------------------------|-5-5-5-5-5-5-5-5-5-5-5-5-5-5-5-5-|

G|---------------------------------|---------------------------------|
D|*--------------------------------|--------------------------------*|
A|*3-3-3-3-3-3-3-3-3-3-3-3-3-3-3-3-|--------------------------------*|
E|---------------------------------|-3-3-3-3-3-3-3-3-3-3-3-3-3-3-3-3-|

G|---------------------------------|---------------------------------|
D|*--------------------------------|--------------------------------*|
A|*5-5-5-5-5-5-5-5-5-5-5-5-5-5-5-5-|--------------------------------*|
E|---------------------------------|-5-5-5-5-5-5-5-5-5-5-5-5-5-5-5-5-|

Next part of bridge:

G|---------------------------------|---------------------------------|
D|*--------------------------------|--------------------------------*|
A|*3-3-3-3-3-3-3-3-3-3-3-3-3-3-3-3-|-5-5-5-5-5-5-5-5-5-5-5-5-5-5-5-5*|
E|---------------------------------|---------------------------------|

G|---------------------------------|---------------------------------|
D|*--------------------------------|--------------------------------*|
A|*5-5-5-5-5-5-5-5-5-5-5-5-5-5-5-5-|-3-3-3-3-3-3-3-3-3-3-3-3-3-3-3-3*|
E|---------------------------------|---------------------------------|

G|---------------------------------|---------------------------------|
D|*--------------------------------|--------------------------------*|
A|*--------------------------------|-5~-----------------------------*|
E|-3-3-3-3-3-3-3-3-3-3-3-3-3-3-3-3-|---------------------------------|

Break:

G|---------------------------------|---------------------------------|
D|*--------------------------------|--------------------------------*|
A|*------------3b------------------|-------------3b-----------------*|
E|-5-5---5-3-------5-5---5-3-0-3-0-|-5-5---5-3-------5-5---5-3-0-3-0-|

G|---------------------------------|---------------------------------|
D|*--------------------------------|--------------------------------*|
A|*------------3b------------------|-------------3b-----------------*|
E|-5-5---5-3-------5-5---5-3-0-3-0-|-5-5---5-3-------5-5---5-3-0-3-0-|

Third Verse:

G|---------------------------------|---------------------------------|
D|*--------------------------------|--------------------------------*|
A|*------------3b------------------|-------------3b-----------------*|
E|-5-5---5-3-------5-5---5-3-0-3-0-|-5-5---5-3-------5-5---5-3-0-3-0-|

G|---------------------------------|---------------------------------|
D|*--------------------------------|--------------------------------*|
A|*------------3b------------------|-------------3b-----------------*|
E|-5-5---5-3-------5-5---5-3-0-3-0-|-5-5---5-3-------5-5---5-3-0-3-0-|

Outro:

G|---------------------------------|---------------------------------|
D|*--------------------------------|--------------------------------*|
A|*------------3b------------------|-------------3b-----------------*|
E|-5-5---5-3-------5-5---5-3-0-3-0-|-5-5---5-3-------5-5---5-3-0-3-0-|

G|---------------------------------|---------------------------------|
D|*--------------------------------|--------------------------------*|
A|*------------3b------------------|-------------3b-----------------*|
E|-5-5---5-3-------5-5---5-3-0-3-0-|-5-5---5-3-------5-5---5-3-0-3-0-|

G|---------------------------------|
D|*-------------------------------*|
A|*-------------------------------*|
E|-5~------------------------------|
  development and support by
dmitry ivanov