rock
 
|tablatures   |lyrics   |discussion forums   |more tabs @ XGuitar.com

U2 tabs

Everlasting Love guitar chords

EVERLASTING LOVE
----------------
U2

Someone on the guest-book requested info on playing
this song so I thought I'd send some details on how I
play it. The chords already on the archive are spot on
however it's very important that you tune down the
guitar a half step if you want to play along to the CD.

Here's the the chords that I use:

Intro and Chorus:                 Verse:

   E   B   A  F#m  B   E          A   D
E--0---7---5---2---7---0----------0---2------------
B--0---7---5---2---7---0----------2---3------------
G--1---8---6---2---8---1----------2---2------------
D--2---9---7---4---9---2----------2---0------------
A--2---9---7---4---9---2----------0----------------
E--0---7---5---2---7---0---------------------------

This love will
last forever:   Extra bit:

   B   C
E--X---X-------------12--12--11--12--12--11--12------
B--4---5---------------------------------------------
G--4---5---------------------------------------------
D--4---5---------------------------------------------
A--2---3---------------------------------------------
E----------------------------------------------------

The extra bit is right at the end of the song.

That about it all really, just listen to the CD for
the strumming patterns (there's actually two guitars
at the start).

See ya

jules. (jules153@hotmail.com)


--








 "Everlasting Love"
  ----------------
chords by: John S. Jacob, jsjacob@uclink.berkeley.edu

Correction from Brandon Leniart (leniarbk@jmu.edu)
This should be tuned down half a step.



[Intro]

E B A F#m B E
E B A F#m B E
E

[Verse]
A               D                          A
Hearts gone astray, keeping up when they go
        D                           A
I went away just when you needed me so
              D                          A
You won't regret, I'll come back beggin' you
              D                         F#   B
Don't you forget, welcome love we once knew.

 E             B
Open up your eyes
                A
Then you'll realise
                  F#m
Here I stand with my
     B       E
Everlasting Love.

Need you by my side
Girl to be my pride
You'll never be denied
Everlasting Love

From the very start open up your heart
Be elected part of Everlasting Love
                B           C
This love will last forever.
                E
This love will last forever.

Hearts gone astray, deep in hurt when they go
I went away just when you needed me so
You won't regret, I'll come back beggin' you
Don't you forget, welcome love we once knew.

Where life really flows, no-one really knows
'Till someone's there to
show the way to Everlasting Love.

Like the sun it shines, endlessly it shines
You always will be mine with eternal love.

Whenever love went wrong, ours would still be strong
We'd have our very own Everlasting Love

This love will last forever
This love will last forever

Open up your eyes, then you'll realise
Everlasting love

[Ending]

E B             A    F#m
    Everlasting love
    B       E    B
Everlasting love
            A    F#m
Everlasting love
    B       E    B A F#m B E
Everlasting love
  development and support by
dmitry ivanov