rock
 
|tablatures   |lyrics   |discussion forums   |more tabs @ XGuitar.com

U2 tabs

Elevation bass tab

Elevation - for bass

Tabbed By Dan Greenhalgh
dangreenhalgh75@hotmail.com

-->Note:  This Tab is in E, But can be played in 
          A by moving all the notes up one string<--

Intro:  (Wait until the guitar has played 
two riffs (E-77700000-|) before playing:

G---------------|
D---------------|
A---------------|
E--4-5-7--4--0--|
   1 + 2  3  4 
           
Verse:

G-----------------------------------|
D-----------------------------------|
A-------------------7-7-7-7-7-7-7-7-|
E--7-7-7-7-5-5-5-5------------------|
   1 + 2 + 3 + 4 +   1 + 2 + 3 + 4 +

Pre-Chorus

G----------------------------------|
D----------------------------------|
A-------------------7-7-7-7-7-6-5--|
E--7-7-7-7-5-5-5-5-----------------|
   1 + 2 + 3 + 4 +   1 + 2 + 3 + 4 


Chorus:

G-----------------------------------|
D-----------------------------------|
A-------------------7-7-7-7-7-7-7-7-|
E--7-7-7-7-5-5-5-5------------------|
   1 + 2 + 3 + 4 +   1 + 2 + 3 + 4 +

Bridge:
G-------------------|
D-------------------|
A-------------------|
E--7-7-7-7-5-5-5-5--|
   1 + 2 + 3 + 4 +


Song Order

Intro x14
Verse x3
Pre-Chorus x1
Chorus x 6
Verse x3
Pre-Chorus x1
Chorus x4
Intro x7
Bridge x1
-->Rest For 11 bars - (Vocal ad lib. by Bono)
Chorus x4
Intro x7
Bridge x1
Intro x7
Bridge - repeat and fade.


=============================================================================
Artist:U2 
Song :elevation (bass)
Album :all that you can't leave behind  

right, heres the bass tab for elevation, pretty easy song basic rock & roll style 

intro 
G-------------------------------
D-------------------------------
A---7--7-------7--7-----5--7----
E---------5---5-----55-7--------

woohoo or chorus 
G-------------------------------------------- 
D--------------------------------------------
A-----------------77-------5-77--------5-77--
E----------------------55-7-------55-7-------       
Its basically playing the E & A  but running up to the E after the A 

at the end of the woohoo part it does this 
G---------------------------------------
D---------------------------------------
A---------------------------------------
E-------77-55--00-----------------------


Verse 
G--------------------------------
D--------------------------------  
A--------------------------------
E----7777-5555--0000-00----------  


with some basic fills like this   
after the Low E                           
G------------------------------------
D------------------------------------   
A--------7-5-------------------------                                                    E----00-------7-5-----7777-555---0000

There it is , the end just plays the woohoo or chorus part
just have fun with it, its pretty fun to play & you can make it as complicated as you like 
listen to the song for an accurate rythym 
any comments email Bassofidicen@aol.com

============================================================================
Elevation Bass Tab
>From that kickass new album
"All That You Can't Leave Behind"
By your resident basser Jeff Newton

I was just sounding it out and this is what i came up with:
During the Intro electric tricky guitar stuff:
G----------------------------------------
D----------------------------------------
A--2-0-0---2-5-7---2-0-0---7-2-0-0-2-5---
E----------------------------------------

Then just as Bono starts whooping and the guitar comes in:
G---------------------------------
D---------------------------------
A--7-7-7-2-0-0-2-5-7-7-7-2-0-0----
E---------------------------------

Verse/Chorus

G-------------------------------------------------------------------------
D-------------------------------------------------------------------------
A-7-7-0-0-0-7-7--7-7-7-2-2-0-0-0-7-7-7-7-7-2-2-0-0-0-7-7-7-7-7-2-2-0-0-0--
E-------------------------------------------------------------------------

G-------------------------
D-------------------------
A---7-7--5-------5-7------
E------------7-5----------

After interlude when there is heavy distortion on Edge's guitar and bono
sings "elevation" over and over
G-----------------------------------------
D-----------------------------------------
A--7-7-7-5-2-2-0-2/7-7-7-5-2-2-0-2/-------
E-----------------------------------------
*Note: There are some higher embellishments Adam adds during the chorus that
I couldn't pick out....the regular chorus/verse riff sounds fine in this
case, but if you wanna add your own little signature by all means nullify my
tab!

I won't insult your intelligence by laying it out all nice and pretty there
for you. I'm pretty sure these are all the parts to the tune, try playing it
and find out!
Fan Mail, Hate Mail, Love Mail----------> onewton@mediaone.net
  development and support by
dmitry ivanov