rock
 
|tablatures   |lyrics   |discussion forums   |more tabs @ XGuitar.com

U2 tabs

Discotheque bass tab

Discotheque Bass

from: "Bonovox " 

     Well, I think I've got a new part tabbed out.  You know the part 
where Bono sings "So you take what you can get...".  I think Adam 
plays this:

G------------------------------------------------------------
D------------------------------------------------------------
A------9-----9-----9-----9-----9-----9-----9-----9-----9-----
E---7-----7-----7-----7-----7-----7-----7-----7-----7--------

"Cause it's all that you could find"
G------------------------------------------------------------
D------------------------------------------------------------
A------2-----2-----2-----2-----2-----2-----2-----2-----2-----
E---0-----0-----0-----0-----0-----0-----0-----0-----0--------

"But you know there's something more"
G------------------------------------------------------------
D------------------------------------------------------------
A------5-----5-----5-----5-----5-----5-----5-----5-----5-----
E---3-----3-----3-----3-----3-----3-----3-----3-----3--------

"Tonight, tonight, tonight..."
G------------------------------------------------------------
D------------------------------------------------------------
A------7-----7-----7-----7-----7-----7-----7-----7-----7-----
E---5-----5-----5-----5-----5-----5-----5-----5-----5--------

The first three lines I'm positive of, the last one I'm not sure 
because Edge is playing a Bsus2.  I'll right out a live tab for both 
guitar and bass when I get a chance.

Bonovox


U2- Discotheque Bass

Main Riff:

G----------------------------------------------------------------
D----------------------------------------------------------------
A----------------------------------------------------------------
E--7--7--7--5--7--7--7--5--3--3--3--5--3--0----------------------

Chorus:

G----------------------------------------------------------------
D----------------------------------------------------------------
A----5--5--4--5--7--7--7-----------------------------------------
E----------------------------------------------------------------

This is quite simple... during that guitar stuff of Edge the frets
are (A string) 0 7 5 and i think 3
Just go trying and find it! :)))

If you have the bass tab for Sunday Bloody Sunday please email! :)

celso_pinto@mail.geocities.com
http://www.terravista.pt/Nazare/1081
  development and support by
dmitry ivanov