rock
 
|tablatures   |lyrics   |discussion forums   |more tabs @ XGuitar.com

U2 tabs

Dirty Day bass tab

U2 "DIRTY DAY" -BASS TAB
--------------------

Tune down 1/2 step: Eb Ab Db Gb

1. intro:

|-----------------------|
|*---------------------*|
|*--5-5-5-----3-3-3----*|
|---------5---------3---|

Play this riff 5x and then play:

|--------------------------|
|--------------5-----------|
|----5-5-5--5h7---3-3-3----|
|---------5------------3---| once, then

|-----------------------------|
|*------------5------------3-*|
|*--5-5-5--5h7---3-3-3--3h5--*|
|---------5------------3------| twice

|-----------------------|
|*---------------------*|
|*--5-5-5-----3-3-3----*|
|---------5-5-------3---|

First verse:
|-----------------------|
|*--------------------3*|
|*--5-5-5-----3-3-3----*|
|---------5-5-------3---|

Chorus and rest of song:

|----------------------------|
|*--------------------------*|
|*--5-5-5-----5-3-3-3-----3-*|
|---------5-7---------3-5----|

Interlude:

|----|----|----|----|----|
|----|----|----|----|----|
|-5--|----|-3--|-5--|----|
|----|-5--|----|----|-5--|

outro:
|----------------------------|
|*--------------------------*|
|*--5-5-5-----5-3-3-3-----3-*|
|---------5-7---------3-5----|

Tabbed by Mark Linwood


Hint suggesstions or comments to (Rlinwood@powerup.com.au)
  development and support by
dmitry ivanov