rock
 
|tablatures   |lyrics   |discussion forums   |more tabs @ XGuitar.com

U2 tabs

Daddy's Gonna Pay For Your Crashed Car bass tab

U2 "Daddy's Gonna Pay For Your Crashed Car"
-------------------------------------------
steve palmer am560@freenet.carleton.ca

Tune down 1/2 step to: Eb Ab Db Gb Bb Eb

This whole song is one chord: A (after tuning down)

Intro: (guitar and bass together)

Db|-----------------------------------------------------------------|
Ab|-----------------------------------------------------------------|
Eb|-------------------------5---3-----------------------5---3-------|
                                                           
Db|-----------------------------------------------------------------|
Ab|-----------------------------------------------------------------|
Eb|-3-3--1-3-3--1-3-3--1-3-3--1-3-3--1-3-3--1-3-3--1-3-3--1-3-3-----|
(this repeats a few times)

When drums and bass stop:

Db|-----------------------------------------------------------------|
Ab|-------5------5------5-----------5------5------5-----------------|
Eb|--5-3----5-3----5-3----5-3--5-3----5-3----5-3----5-3-------------|

Bass line for whole song:

Db|-----------------------------------------------------------------|
Ab|-0-0-0---0-0-0---0-0-0---0-0-0---0-0-0---0-0-0---0-0-0---0-0-0---|
Eb|-----------------------------------------------------------------|

Except for: [bass riff #1]

Db|-----------------------------------------------------------------|
Ab|-0-0-0--0-0-0---5-3-------0-0-0--0-0-0---------------------------|
Eb|--------------------5-3------------------------------------------|
(this riff is played a few times throughout the song)
  development and support by
dmitry ivanov