rock
 
|tablatures   |lyrics   |discussion forums   |more tabs @ XGuitar.com

U2 tabs

Crumbs From Your Table guitar tab

Intro:
e-----------------------------------------------------------------------------------------------------
B--------12----------- 12------------12-------12--------------12------------12------------------
G--------------9-------------9-------------------------9--------------9-----------------------------
D----12-----------12------------12-------12--------------12------------12-----------------------
A-----------------------------------------------------------------------------------------------------
E------------------------------------------------------------------------------------------------------

e------------------------------------------------------------------------------------------------------
B--------10-----------10-------------10---------10-------------10-------------10----------------
G-------------9------------9----------------------------9-------------9-----------------------------
D---12-----------12------------12----------11------------11-------------11----------------------
A-----------------------------------------------------------------------------------------------------
E-----------------------------------------------------------------------------------------------------

Repeat all of previous and then move on to:

e------------------------------------------------------------------------------------------------------
B--------12--------------12------------12---------12-----------------12--------------------------
G-------------9---------------9----------------------------9-----------------------------------------
D---12-----------12-------------12-------- 12-----------------12---------------------------------
A-----------------------------------------------------------------------------------------------------
E------------------------------------------------------------------------------------------------------

e------------------------------------------------------------------------------------------------------
B----12----12----12-----12-----12------12---------9--------8-----------------------------------
G-----9-----9------9------9-------9-------9----------7--------6-----------------------------------
D----12----12-----12----11------11-----11---------9--------x-----------------------------------
A----------------------------------------------------------------7------------------------------------
E------------------------------------------------------------------------------------------------------

The rest of the song then consists of simple D A G rotation, and that's about it!
  development and support by
dmitry ivanov