rock
 
|tablatures   |lyrics   |discussion forums   |more tabs @ XGuitar.com

U2 tabs

Crumbs From Your Table bass tab

#---------------------------------PLEASE NOTE---------------------------------#
#This file is the author's own work and represents their interpretation of the#
#song. You may only use this file for private study, scholarship, or research.#
#-----------------------------------------------------------------------------#

Song: Crumbs From Your Table
Artist: U2
Album: How To Dismantle An Atomic Bomb
Tabbed by: Jase Warner (trip_through_your_wires@hotmail.com)

Standard Tuning (E,A,D,G)

Intro (bass comes in with acoustic guitar:

G|---------|---------|---------|---------|---------|---------|---------|---------|
D|*--------|---------|---------|---------|---------|---------|---------|--------*|
A|*--------|---------|---------|---------|-5~------|---\\-7-9-|-10~-----|--------*|
E|-0~------|-----0-2-|-3~------|---------|---------|---------|---------|---------|

G|---------|---------|---------|---------|---------|---------|---------|---------|
D|*--------|---------|---------|---------|---------|---------|---------|--------*|
A|*5-------|---------|-5-------|---------|-5-------|---------|-5-------|--------*|
E|---5-5--5|5--3-3--3|---5-5--5|5--3-3--3|---5-5--5|5--3-3--3|---5-5--5|5--3-3--3|

G|---------|---------|---------|---------|---------|---------|---------|---------|
D|*--------|---------|---------|---------|---------|---------|---------|--------*|
A|*5-------|---------|-5-------|---------|-5-------|---------|-5-------|--------*|
E|---5-5--5|5--3-3--3|---5-5--5|5--3-3--3|---5-5--5|5--3-3--3|---5-5--5|5--3-3--3|

First Verse:

G|---------|---------|---------|---------|---------|---------|---------|---------|
D|*--------|---------|---------|---------|---------|---------|---------|--------*|
A|*--------|---------|---------|---------|---------|---------|---------|--------*|
E|-5-5-5--5|5--3-3--3|-5-5-5--5|5--3-3--3|-5-5-5--5|5--3-3--3|-5-5-5--5|5--3-3--3|

G|---------|---------|---------|---------|---------|---------|---------|---------|
D|*--------|---------|---------|---------|---------|---------|---------|--------*|
A|*--------|---------|---------|---------|---------|---------|---------|--------*|
E|-5-5-5--5|5--3-3--3|-5-5-5--5|5--3-3--3|-5-5-5--5|5--3-3--3|-5-5-5--5|5--3-3--3|

G|---------|---------|---------|---------|---------|---------|---------|---------|
D|*--------|---------|---------|---------|---------|---------|---------|--------*|
A|*--------|---------|---------|---------|---------|---------|---------|--------*|
E|-5-5-5--5|5--3-3--3|-5-5-5--5|5--3-3--3|-5-5-5--5|5--3-3--3|-5-5-5--5|5--3-3--3|

Chorus:

G|---------|---------|---------|---------|---------|---------|---------|---------|
D|*--------|---------|---------|---------|---------|---------|---------|--------*|
A|*--------|---------|---------|-----0-2-|-5--5----|---------|---------|--------*|
E|-0-----0-|---0-0-2-|-3-----3-|---3-----|-----0---|--2----3-|-5-----5-|---5-3-2-|

G|---------|---------|---------|---------|---------|---------|---------|---------|
D|*--------|---------|---------|---------|---------|---------|---------|--------*|
A|*--------|---------|---------|-----0---|-2-----2-|------0--|---------|--------*|
E|-0-----0-|---0-0-2-|-3-----3-|---3-----|---------|---------|-3~------|---------|

Break:

G|---------|---------|---------|---------|---------|---------|---------|---------|
D|*--------|---------|---------|---------|---------|---------|---------|--------*|
A|*5-------|---------|-5-------|---------|-5-------|---------|-5-------|--------*|
E|---5-5--5|5--3-3--3|---5-5--5|5--3-3--3|---5-5--5|5--3-3--3|---5-5--5|5--3-3--3|

Second Verse (slight variation from first verse):

G|---------|---------|---------|---------|---------|---------|---------|---------|
D|*--------|---------|---------|---------|---------|---------|---------|--------*|
A|*--------|---------|---------|---------|---------|---------|---------|--------*|
E|-5-5-5--5|5--3-3--3|-5-5-5--5|5--3-3--3|-5-5-5--5|5--3-3--3|-2-2-2--2|2--3-3--3|

G|---------|---------|---------|---------|---------|---------|---------|---------|
D|*--------|---------|---------|---------|---------|---------|---------|--------*|
A|*--------|---------|---------|---------|---------|---------|---------|--------*|
E|-5-5-5--5|5--3-3--3|-5-5-5--5|5--3-3--3|-5-5-5--5|5--3-3--3|-2-2-2--2|2--3-3--3|

Chorus (variation from first chorus):

G|---------|---------|---------|---------|---------|---------|---------|---------|
D|*--------|---------|---------|---------|---------|---------|---------|--------*|
A|*--------|---------|---------|-----0-2-|-5--5----|---------|---------|--------*|
E|-0-----0-|---0-0-2-|-3-----3-|---3-----|-----0---|--2----3-|-5-----5-|---5-3-2-|

G|---------|---------|---------|---------|---------|---------|---------|---------|
D|*--------|---------|---------|---------|---------|---------|---------|--------*|
A|*--------|---------|---------|-----0---|---------|---------|---------|--------*|
E|-0-----0-|---0-0-2-|-3-----3-|---3-----|-0-----0-|---0-2---|-3~------|---------|

Break:

G|---------|---------|---------|---------|---------|---------|---------|---------|
D|*--------|---------|---------|---------|---------|---------|---------|--------*|
A|*5-------|---------|-5-------|---------|-5-------|---------|-5-------|--------*|
E|---5-5--5|5--3-3--3|---5-5--5|5--3-3--3|---5-5--5|5--3-3--3|---5-5--5|5--3-3--3|

Chorus:

G|---------|---------|---------|---------|---------|---------|---------|---------|
D|*--------|---------|---------|---------|---------|---------|---------|--------*|
A|*--------|---------|---------|-----0-2-|-5--5----|---------|---------|--------*|
E|-0-----0-|---0-0-2-|-3-----3-|---3-----|-----0---|--2----3-|-5-----5-|---5-3-2-|

G|---------|---------|---------|---------|---------|---------|---------|---------|
D|*--------|---------|---------|---------|---------|---------|---------|--------*|
A|*--------|---------|---------|-----0-2-|-5--5----|---------|---------|--------*|
E|-0-----0-|---0-0-2-|-3-----3-|---3-----|-----0---|--2----3-|-5-----5-|---5-5-5-|

Bridge:

G|---------|---------|---------|---------|---------|---------|---------|---------|
D|*--------|---------|---------|---------|---------|---------|---------|--------*|
A|*--------|---------|---------|---------|---------|---------|---------|--------*|
E|-5-5-5--5|5--3-3--3|-5-5-5--5|5--3-3--3|-5-5-5--5|5--3-3--3|-5-5-5--5|5--3-3--3|

G|---------|---------|---------|---------|---------|---------|---------|---------|
D|*--------|---------|---------|---------|---------|---------|---------|--------*|
A|*--------|---------|---------|---------|---------|---------|---------|--------*|
E|-5-5-5--5|5--3-3--3|-5-5-5--5|5--3-3--3|-5-5-5--5|5--3-3--3|-5-5-5--5|5--3-3--3|

Chorus:

G|---------|---------|---------|---------|---------|---------|---------|---------|
D|*--------|---------|---------|---------|---------|---------|---------|--------*|
A|*--------|---------|---------|-----0-2-|-5--5----|---------|---------|--------*|
E|-0-----0-|---0-0-2-|-3-----3-|---3-----|-----0---|--2----3-|-5-----5-|---5-3-2-|

G|---------|---------|---------|---------|---------|---------|---------|---------|
D|*--------|---------|---------|---------|---------|---------|---------|--------*|
A|*--------|---------|---------|-----0---|-2-----2-|------0--|---------|--------*|
E|-0-----0-|---0-0-2-|-3-----3-|---3-----|---------|---------|-3~------|---------|

Break:

G|---------|---------|---------|---------|---------|---------|---------|---------|
D|*--------|---------|---------|---------|---------|---------|---------|--------*|
A|*5-------|---------|-5-------|---------|-5-------|---------|-5-------|--------*|
E|---5-5--5|5--3-3--3|---5-5--5|5--3-3--3|---5-5--5|5--3-3--3|---5-5--5|5--3-3--3|

G|---------|---------|---------|---------|---------|---------|---------|---------|
D|*--------|---------|---------|---------|---------|---------|---------|--------*|
A|*5-------|---------|-5-------|---------|-5-------|---------|-5-------|--------*|
E|---5-5--5|5--3-3--3|---5-5--5|5--3-3--3|---5-5--5|5--3-3--3|---5-5--5|5--3-3--3|

Outro (for however many times):

G|---------|---------|---------|---------|---------|---------|---------|---------|
D|*--------|---------|---------|---------|---------|---------|---------|--------*|
A|*--------|---------|---------|---------|---------|---------|---------|--------*|
E|-5-5-5--5|5--5-5--5|-5-5-5--5|5--5-5--5|-5-5-5--5|5--5-5--5|-5-5-5--5|5--5-5--5|

Ending:

G|---------|---------|---------|
D|*--------|---------|--------*|
A|*--------|---------|-5~-----*|
E|-0-0-----|-3-3--3--|---------|

Great song to play, comments/suggestions welcome.
  development and support by
dmitry ivanov