rock
 
|tablatures   |lyrics   |discussion forums   |more tabs @ XGuitar.com

U2 tabs

City Of Blinding Lights guitar tab

U2 - City of Blinding Lights - Top of the Pops

Start w/feedback & volume swell on G string 13th fret.

Intro (Riff A)
|----18----16----15----------16----15-------------------|
|------------------------18-----------------18----16----|
|-------------------------------------------------------|
|-------------------------------------------------------| x2
|-------------------------------------------------------|
|-------------------------------------------------------|

Pre-Verse (w/Riff A) NOTE - This is cut off so I can't be sure how correct this is. I have put in slashes where the cut-off is, but you can just play it continuously if you're trying to play along with the mp3.
|-------------/-------------|
|----14----13-/-------------|
|-------------/---15--------|
|-------------/-------------|
|-------------/-------15----|
|-------------/-------------|

Verse 1
Palm muting on 4th fret (G#m shape)

NOTE - There is another cut-off here so there may be a part in here as well.

NOTE - The mp3 that I have gets really choppy here so it's almost impossible to get anything completely cohesive out of this. Sorry. Just play around with what's above.

Chorus
Verse 2
Pre-Chorus
Solo
Chorus
Bridge
Chorus


  development and support by
dmitry ivanov