rock
 
|tablatures   |lyrics   |discussion forums   |more tabs @ XGuitar.com

U2 tabs

City Of Blinding Lights bass tab

Song: City Of Blinding Lights
Artist: U2
Album: How To Dismantle An Atomic Bomb
Tabbed by: Jase Warner (trip_through_your_wires@hotmail.com)

Standard Tuning (E,A,D,G) Down Half A Step

Intro (when paino begins, play softly and gradually increase loudness):

G|-------------------------|-------------------------|-----------------|-----------------|
D|*------------------------|-------------------------|-----------------|----------------*|
A|*12-12-12-12-12-12-12-12\|-14-14-14-14-14-14-14-14\|-9-9-9-9-9-9-9-9-|-9-9-9-9-9-9-9-9*|
E|-------------------------|-------------------------|-----------------|-----------------|
then listen out for this part (drums will begin to fade in):
G|-------------------------|-------------------------|
D|*------------------------|-------------------------|
A|*12-12-12-12-12-12-12-12\|-19-19-19-19-19-19-19-19\|
E|-------------------------|-------------------------|

G|-------------------------|-------------------------|
D|*------------------------|------------------------*|
A|*17-17-17-17-17-17-17-17-|-17-17-17-17-17-17-17-17*|
E|-------------------------|-------------------------|

(drums get into full swing)

G|-------------------------|-------------------------|-----------------|-----------------|
D|*------------------------|-------------------------|-----------------|----------------*|
A|*12-12-12-12-12-12-12-12\|-14-14-14-14-14-14-14-14\|-9-9-9-9-9-9-9-9-|-9-9-9-9-9-9-9-9*|
E|-------------------------|-------------------------|-----------------|-----------------|

G|-------------------------|-------------------------|
D|*------------------------|-------------------------|
A|*12-12-12-12-12-12-12-12\|-14-14-14-14-19-19-19-19\|
E|-------------------------|-------------------------|

G|-------------------------|-------------------------|
D|*------------------------|------------------------*|
A|*17-17-17-17-17-17-17-17-|-17-17-17-17-17-17-17-17*|
E|-------------------------|-------------------------|

G|-------------------------|-------------------------|-----------------|-----------------|
D|*------------------------|-------------------------|-----------------|----------------*|
A|*12-12-12-12-12-12-12-12\|-14-14-14-14-14-14-14-14\|-9-9-9-9-9-9-9-9-|-9-9-9-9-9-9-9-9*|
E|-------------------------|-------------------------|-----------------|-----------------|

G|-------------------------|-------------------------|
D|*------------------------|-------------------------|
A|*12-12-12-12-12-12-12-12\|-19-19-19-19-19-19-19-19\|
E|-------------------------|-------------------------|

G|-------------------------|-------------------------|
D|*------------------------|------------------------*|
A|*17-17-17-17-17-17-17-17-|-17-17-17-17-17-17-17-17*|
E|-------------------------|-------------------------|

First Verse:

G|-------------------------|-------------|---------|-----------------|---------|---------|
D|*------------------------|-------------|---------|-----------------|---------|--------*|
A|*12-12-12-12-12-12-12-12-|-14-14-14-14\|-9-9-9-9\|-5-5-5-5-5-5-5-5-|-5-5-5-5\|-7-7-7-7*|
E|-------------------------|-------------|---------|-----------------|---------|---------|

G|-------------------------|-------------|---------|-----------------|---------|---------|
D|*------------------------|-------------|---------|-----------------|---------|--------*|
A|*12-12-12-12-12-12-12-12-|-14-14-14-14\|-9-9-9-9\|-5-5-5-5-5-5-5-5-|-5-5-5-5\|-7-7-7-7*|
E|-------------------------|-------------|---------|-----------------|---------|---------|

G|-------------------------|-------------|---------|-----------------|---------|---------|
D|*------------------------|-------------|---------|-----------------|---------|--------*|
A|*12-12-12-12-12-12-12-12-|-14-14-14-14\|-9-9-9-9\|-5-5-5-5-5-5-5-5-|-5-5-5-5\|-7-7-7-7*|
E|-------------------------|-------------|---------|-----------------|---------|---------|

G|-------------------------|-------------|---------|-----------------|---------|---------|
D|*------------------------|-------------|---------|-----------------|---------|--------*|
A|*12-12-12-12-12-12-12-12-|-14-14-14-14\|-9-9-9-9\|-5-5-5-5-5-5-5-5-|-5-5-5-5\|-7-7-7-7*|
E|-------------------------|-------------|---------|-----------------|---------|---------|

Pre-Chorus

G|-----------------|-----------------|-----------------|-----------------|
D|*----------------|-----------------|-----------------|----------------*|
A|*3-3-3-3-3-3-3-3-|-3-3-3-3-3-3-3-3-|-5-5-5-5-5-5-5-5-|-5-5-5-5-5-5-5-7*|
E|-----------------|-----------------|-----------------|-----------------|

G|-----------------|-----------------|-----------------|-----------------|
D|*----------------|-----------------|-----------------|----------------*|
A|*3-3-3-3-3-3-3-3-|-3-3-3-3-3-3-3-3-|-5-5-5-5-5-5-5-5-|-5-5-5-5-5-5-5-5*|
E|-----------------|-----------------|-----------------|-----------------|

Chorus:

G|---------|---------|-------------|-------------|---------|---------|---------|---------|
D|*--------|---------|-------------|-------------|---------|---------|---------|--------*|
A|*7-7-7-7-|-9-9-9-9\|-11-11-11-11-|-12-12-12-12\|-5-5-5-5-|-7-7-7-7-|-9-9-9-9-|-5-5-5-5*|
E|---------|---------|-------------|-------------|---------|---------|---------|---------|

G|---------|---------|-------------|-------------|---------|---------|---------|---------|
D|*--------|---------|-------------|-------------|---------|---------|---------|--------*|
A|*7-7-7-7-|-9-9-9-9\|-11-11-11-11-|-12-12-12-12\|-5-5-5-5-|-7-7-7-7-|-9-9-9-9-|-5-5-5-5*|
E|---------|---------|-------------|-------------|---------|---------|---------|---------|

G|---------|---------|-------------|-------------|---------|---------|---------|---------|
D|*--------|---------|-------------|-------------|---------|---------|---------|--------*|
A|*7-7-7-7-|-9-9-9-9\|-11-11-11-11-|-12-12-12-12\|-5-5-5-5-|-7-7-7-7-|-9-9-9-9-|-5-5-5-5*|
E|---------|---------|-------------|-------------|---------|---------|---------|---------|

Break:

G|-------------------------|-------------------------|-----------------|-----------------|
D|*------------------------|-------------------------|-----------------|----------------*|
A|*12-12-12-12-12-12-12-12\|-14-14-14-14-14-14-14-14\|-9-9-9-9-9-9-9-9-|-9-9-9-9-9-9-9-9*|
E|-------------------------|-------------------------|-----------------|-----------------|

G|-------------------------|-------------------------|
D|*------------------------|-------------------------|
A|*12-12-12-12-12-12-12-12\|-19-19-19-19-19-19-19-19\|
E|-------------------------|-------------------------|

G|-------------------------|-------------------------|
D|*------------------------|------------------------*|
A|*17-17-17-17-17-17-17-17-|-17-17-17-17-17-17-17-17*|
E|-------------------------|-------------------------|

Second Verse:

G|-------------------------|-------------|---------|-----------------|---------|---------|
D|*------------------------|-------------|---------|-----------------|---------|--------*|
A|*12-12-12-12-12-12-12-12-|-14-14-14-14\|-9-9-9-9\|-5-5-5-5-5-5-5-5-|-5-5-5-5\|-7-7-7-7*|
E|-------------------------|-------------|---------|-----------------|---------|---------|

G|-------------------------|-------------|---------|-----------------|---------|---------|
D|*------------------------|-------------|---------|-----------------|---------|--------*|
A|*12-12-12-12-12-12-12-12-|-14-14-14-14\|-9-9-9-9\|-5-5-5-5-5-5-5-5-|-5-5-5-5\|-7-7-7-7*|
E|-------------------------|-------------|---------|-----------------|---------|---------|

G|-------------------------|-------------|---------|-----------------|---------|---------|
D|*------------------------|-------------|---------|-----------------|---------|--------*|
A|*12-12-12-12-12-12-12-12-|-14-14-14-14\|-9-9-9-9\|-5-5-5-5-5-5-5-5-|-5-5-5-5\|-7-7-7-7*|
E|-------------------------|-------------|---------|-----------------|---------|---------|

G|-------------------------|-------------|---------|-----------------|---------|---------|
D|*------------------------|-------------|---------|-----------------|---------|--------*|
A|*12-12-12-12-12-12-12-12-|-14-14-14-14\|-9-9-9-9\|-5-5-5-5-5-5-5-5-|-5-5-5-5\|-7-7-7-7*|
E|-------------------------|-------------|---------|-----------------|---------|---------|

G|-------------------------|-------------|---------|-----------------|---------|---------|
D|*------------------------|-------------|---------|-----------------|---------|--------*|
A|*12-12-12-12-12-12-12-12-|-14-14-14-14\|-9-9-9-9\|-5-5-5-5-5-5-5-5-|-5-5-5-5\|-7-7-7-7*|
E|-------------------------|-------------|---------|-----------------|---------|---------|

Pre-Chorus:

G|-----------------|-----------------|-----------------|-----------------|
D|*----------------|-----------------|-----------------|----------------*|
A|*3-3-3-3-3-3-3-3-|-3-3-3-3-3-3-3-3-|-5-5-5-5-5-5-5-5-|-5-5-5-5-5-5-5-7*|
E|-----------------|-----------------|-----------------|-----------------|

G|-----------------|-----------------|-----------------|-----------------|
D|*----------------|-----------------|-----------------|----------------*|
A|*3-3-3-3-3-3-3-3-|-3-3-3-3-3-3-3-3-|-5-5-5-5-5-5-5-5-|-5-5-5-5-5-5-5-5*|
E|-----------------|-----------------|-----------------|-----------------|

Chorus:

G|---------|---------|-------------|-------------|---------|---------|---------|---------|
D|*--------|---------|-------------|-------------|---------|---------|---------|--------*|
A|*7-7-7-7-|-9-9-9-9\|-11-11-11-11-|-12-12-12-12\|-5-5-5-5-|-7-7-7-7-|-9-9-9-9-|-5-5-5-5*|
E|---------|---------|-------------|-------------|---------|---------|---------|---------|

G|---------|---------|-------------|-------------|---------|---------|---------|---------|
D|*--------|---------|-------------|-------------|---------|---------|---------|--------*|
A|*7-7-7-7-|-9-9-9-9\|-11-11-11-11-|-12-12-12-12\|-5-5-5-5-|-7-7-7-7-|-9-9-9-9-|-5-5-5-5*|
E|---------|---------|-------------|-------------|---------|---------|---------|---------|

G|---------|---------|-------------|-------------|---------|---------|---------|---------|
D|*--------|---------|-------------|-------------|---------|---------|---------|--------*|
A|*7-7-7-7-|-9-9-9-9\|-11-11-11-11-|-12-12-12-12\|-5-5-5-5-|-7-7-7-7-|-9-9-9-9-|-5-5-5-5*|
E|---------|---------|-------------|-------------|---------|---------|---------|---------|

Break:

G|-------------------------|-------------------------|-----------------|-----------------|
D|*------------------------|-------------------------|-----------------|----------------*|
A|*12-12-12-12-12-12-12-12\|-14-14-14-14-14-14-14-14\|-9-9-9-9-9-9-9-9-|-9-9-9-9-9-9-9-9*|
E|-------------------------|-------------------------|-----------------|-----------------|

G|-------------------------|-------------------------|
D|*------------------------|-------------------------|
A|*12-12-12-12-12-12-12-12\|-19-19-19-19-19-19-19-19\|
E|-------------------------|-------------------------|

G|-------------------------|-------------------------|
D|*------------------------|------------------------*|
A|*17-17-17-17-17-17-17-17-|-17-17-17-17-17-17-17-17*|
E|-------------------------|-------------------------|

Interlude:

G|-------------------------|-------------------------|-------------------------|-------------------------|
D|*------------------------|-------------------------|-------------------------|------------------------*|
A|*-2--2---0--2~--------\--|--2--2---0--2~--------\--|--2--2---0--2~--------\--|--2--2---0--2~----\---5-*|
E|-------------------------|-------------------------|-------------------------|-------------------------|

Chorus:

G|---------|---------|-------------|-------------|---------|---------|---------|---------|
D|*--------|---------|-------------|-------------|---------|---------|---------|--------*|
A|*7-7-7-7-|-9-9-9-9\|-11-11-11-11-|-12-12-12-12\|-5-5-5-5-|-7-7-7-7-|-9-9-9-9-|-5-5-5-5*|
E|---------|---------|-------------|-------------|---------|---------|---------|---------|

G|---------|---------|-------------|-------------|---------|---------|---------|---------|
D|*--------|---------|-------------|-------------|---------|---------|---------|--------*|
A|*7-7-7-7-|-9-9-9-9\|-11-11-11-11-|-12-12-12-12\|-5-5-5-5-|-7-7-7-7-|-9-9-9-9-|-5-5-5-5*|
E|---------|---------|-------------|-------------|---------|---------|---------|---------|

G|---------|---------|-------------|-------------|---------|---------|---------|---------|
D|*--------|---------|-------------|-------------|---------|---------|---------|--------*|
A|*7-7-7-7-|-9-9-9-9\|-11-11-11-11-|-12-12-12-12\|-5-5-5-5-|-7-7-7-7-|-9-9-9-9-|-5-5-5-5*|
E|---------|---------|-------------|-------------|---------|---------|---------|---------|

G|---------|---------|-------------|-------------|---------|---------|---------|---------|
D|*--------|---------|-------------|-------------|---------|---------|---------|--------*|
A|*7-7-7-7-|-9-9-9-9\|-11-11-11-11-|-12-12-12-12\|-5-5-5-5-|-7-7-7-7-|-9-9-9-9-|-5-5-5-5*|
E|---------|---------|-------------|-------------|---------|---------|---------|---------|

G|---------|---------|-------------|-------------|---------|---------|---------|---------|
D|*--------|---------|-------------|-------------|---------|---------|---------|--------*|
A|*7-7-7-7-|-9-9-9-9\|-11-11-11-11-|-12-12-12-12\|-5-5-5-5-|-7-7-7-7-|-9-9-9-9-|-5-5-5-5*|
E|---------|---------|-------------|-------------|---------|---------|---------|---------|

Break:

G|-------------------------|-------------------------|-----------------|-----------------|
D|*------------------------|-------------------------|-----------------|----------------*|
A|*12-12-12-12-12-12-12-12\|-14-14-14-14-14-14-14-14\|-9-9-9-9-9-9-9-9-|-9-9-9-9-9-9-9-9*|
E|-------------------------|-------------------------|-----------------|-----------------|

G|-------------------------|-------------------------|
D|*------------------------|-------------------------|
A|*12-12-12-12-12-12-12-12\|-19-19-19-19-19-19-19-19\|
E|-------------------------|-------------------------|

G|-------------------------|-------------------------|
D|*------------------------|------------------------*|
A|*17-17-17-17-17-17-17-17-|-17-17-17-17-17-17-17-17*|
E|-------------------------|-------------------------|

G|-------------------------|-------------------------|-----------------|-----------------|
D|*------------------------|-------------------------|-----------------|----------------*|
A|*12-12-12-12-12-12-12-12\|-14-14-14-14-14-14-14-14\|-9-9-9-9-9-9-9-9-|-9-9-9-9-9-9-9-9*|
E|-------------------------|-------------------------|-----------------|-----------------|

G|-------------------------|-------------------------|
D|*------------------------|-------------------------|
A|*12-12-12-12-12-12-12-12\|-19-19-19-19-19-19-19-19\|
E|-------------------------|-------------------------|

G|-------------------------|-------------------------|
D|*------------------------|------------------------*|
A|*17-17-17-17-17-17-17-17-|-17-17-17-17-17-17-17-17*|
E|-------------------------|-------------------------|

Outro:

G|-------------------------|-------------|---------|-----------------|---------|---------|
D|*------------------------|-------------|---------|-----------------|---------|--------*|
A|*12-12-12-12-12-12-12-12-|-14-14-14-14\|-9-9-9-9\|-5-5-5-5-5-5-5-5-|-5-5-5-5\|-7-7-7-7*|
E|-------------------------|-------------|---------|-----------------|---------|---------|

G|-------------------------|-------------|---------|-----------------|---------|---------|
D|*------------------------|-------------|---------|-----------------|---------|--------*|
A|*12-12-12-12-12-12-12-12-|-14-14-14-14\|-9-9-9-9\|-5-5-5-5-5-5-5-5-|-5-5-5-5\|-7-7-7-7*|
E|-------------------------|-------------|---------|-----------------|---------|---------|

G|----------------------------------|----------------------------------|
D|*----14------14------14----14-----|-----14------14------14----14-----|
A|*12-----12------12------12------12|-12-----12------12------12-----12-|
E|----------------------------------|----------------------------------|

G|----------------------------------|----------------------------------|
D|*----14------14------14----14-----|-----14------14------14----14-----|
A|*12-----12------12------12------12|-12-----12------12------12-----12~|
E|----------------------------------|----------------------------------|

That's it. like I said, real *** good song! Any comments welcome as usual.
  development and support by
dmitry ivanov