rock
 
|tablatures   |lyrics   |discussion forums   |more tabs @ XGuitar.com

U2 tabs

Boy/Girl guitar tab

BOY/GIRL
				   U2

TUNE DOWN WHOLE STEP!

			     Boy--------Girl   When a boy meets a girl...
|--------------------------|--5-5-5-5-5-5-----|--3--3--3--3--3--3--3--3--|
|-10----8----10----8----10-|--5-5-5-5-5-5--5--|--3--3--3--3--3--3--3--3--|
|--0-00-0-00--0-00-0-00--0-|*--------------4-*|*------------------------*|
|--------------------------|*----------------*|*------------------------*|
|--------------------------|------------------|--------------------------|
|--------------------------|------------------|--------------------------|


 Boy----------Girl

|--5-5-5-5-5-5-----|-----9-7-----9-7------|
|--5-5-5-5-5-5--5--|--10------10-----10-8-|
|---------------4--|*9-------9-----------*|
|------------------|*--------------------*|
|------------------|----------------------|
|------------------|----------------------|


VERSE


|---------------------------------|-----3-----|-----------|
|---------------------------------|-----3-----|-----------|
|*-------------------------------*|-----0-----|-----2-----|	repeat verse
|*-------------------------------*|-----------|-----2-----|
|---------------------------------|-----------|-----0-----|
|-5-0-3-0-5-0-3-0-5-0-3-0-5-0-3-0-|-----3-----|-----------|


PLAY BOY/GIRL PART
PLAY VERSE
PLAY BOY/GIRL PART

BRIDGE
			      <1,3		     <2		          
|----------------------------|----------------------|-10-10-10-10-10-10-10-|
|-10-10-10-13-13-13-12-12-12-|----------------------|----------------------|
|----------------------------|-12-12-12-12-12-12-12-|--7--7--7--7--7--7--7-|
|--7--7--7-10-10-10--9--9--9-|----------------------|----------------------|
|----------------------------|-10-10-10-10-10-10-10-|----------------------|
|----------------------------|----------------------|----------------------|


 <4
|----------------------| ||-10-10-10-10-10-10-10-10-10--|--9-9-9-9-9-9-9-9--||
|-12-12-12-12-12-12-12-| ||-----------------------------|-------------------||
|----------------------| |**-7--7--7--7--7--7--7--7--7-*|*-6-6-6-6-6-6-6-6-**|
|--9--9--9--9--9--9--9-| |**---------------------------*|*-----------------**|
|----------------------| ||-----------------------------|-------------------||
|----------------------| ||-----------------------------|-------------------||


		  x8
|---0-0-3-2-0-0-3-2-|--7-7-7-5-5-5-7-7-7-5-5-5-7-7-5-|-------|-----------|
|---0-0-----0-0-----|--5-5-5-5-5-5-5-5-5-5-5-5-5-5-5-|-------|-----------|
|*-----------------*|--------------------------------|--4--2-|-----------|
|*-----------------*|--------------------------------|-------|-2-2-2-2-2-|
|-------------------|--------------------------------|-------|-0-0-0-0-0-|
|-------------------|--------------------------------|-------|-----------|


|--------|-----------------|-----------------|-------------|
|--5---3-|-----------------|-6---------------|-------------|
|--4---2-|-----------------|-5---------------|-------------|
|--------|-2-2-2-2-2-2-2-2-|---5-5-5-5-5-5-5-|--4-4-4-4-4--|
|--------|-0-0-0-0-0-0-0-0-|---3-3-3-3-3-3-3-|--2-2-2-2-2--|


END SONG ON BOY/GIRL PART



 SONG TRANSCRIBED BY: STEVE FORD AND PETER SCHENK(wiglaf@falcon.cc.ukans.edu)
  development and support by
dmitry ivanov