rock
 
|tablatures   |lyrics   |discussion forums   |more tabs @ XGuitar.com

U2 tabs

Beautiful Day bass tab

Beautiful Day - Bass Tab
Jonathan Hughes 

(4/4 time)

Verse 1 (play 6 times)

G|-------------7-7-|-7----------------------|-7-7-7-7-7-7-----|-----------------|
D|-7-7-7-9-9-9-----|---10-10-10-10-10-10-10-|-------------7-7-|-7-7-7-7-7-7-7-7-|
A|-----------------|------------------------|-----------------|-----------------|
E|-----------------|------------------------|-----------------|-----------------|

Chorus (play twice)

G|-----------------|---0-0-0-0-0-0-0-|-----------------|-----------------|
D|-------------0-0-|-0---------------|-0-0-0-0-0-0-----|-----------------|
A|-0-0-0-2-2-2-----|-----------------|-------------0-0-|-0-0-0-0-0-0-0-0-|
E|-----------------|-----------------|-----------------|-----------------|

Verse 2 (play 4 times)
Follow chorus riff for 2nd Verse

Chorus (play twice)

Chorus Extension (play twice)

G|-------------0-0-|-0-0-0-0-0-0-0-0-|-----------------|-----------------|
D|-4-4-4-4-4-4-----|-----------------|-0-0-0-0-0-0-----|-----------------|
A|-----------------|-----------------|-------------0-0-|-0-0-0-0-0-0-0-0-|
E|-----------------|-----------------|-----------------|-----------------|

Chorus (Once)

Bridge

G|-----------------|-----------------|-----------------|-------------------|
D|-----------------|-----------------|-----------------|-------------------|
A|-7---------------|-(7)-------------|-5---------------|-(5)---------------|
E|-----------------|-----------------|-----------------|-------------------|

G|-----------------|-----------------|-----------------|-------------------|
D|-----------------|-----------------|-----------------|-------------------|
A|-----------------|-----------------|-5---------------|-(5)---------------|
E|-0---------------|-3---------------|-----------------|-------------------|

G|-----------------|-----------------|-----------------|-------------------|
D|-----------------|-----------------|-----------------|-------------------|
A|-----------------|-----------------|-5---------------|-(5)---------------|
E|-0---------------|-3---------------|-----------------|-------------------|

G|-----------------|-----------------|-----------------|-------------------|
D|-----------------|-----------------|-----------------|-------------------|
A|-----------------|-----------------|-5---------------|-(5)---------------|
E|-0---------------|-3---------------|-----------------|-------------------| 

G|-----------------|-----------------|-----------------|-------------------|
D|-----------------|-----------------|-----------------|-------------------|
A|-----------------|-----------------|-5---------------|-(5)---------------|
E|-0---------------|-3---------------|-----------------|-------------------|

G|-----------------|-----------------|-----------------|-------------------|
D|-----------------|-----------------|-----------------|-------------------|
A|-----------------|-----------------|-5---------------|-(5)---------------|
E|-0---------------|-3---------------|-----------------|-------------------|




G|-----------------|-----------------|-----------------|-------------------|
D|-----------------|-----------------|-----------------|-------------------|
A|-----------------|-----------------|-5---------------|-(5)---------------|
E|-0---------------|-3---------------|-----------------|-------------------|

G|-----------------|-----------------|-----------------|-----------------|
D|-----------------|-----------------|-----------------|-----------------|
A|-----------------|-----------------|-5---------------|-0---------------|
E|-0---------------|-3---------------|-----------------|-----------------|

Chorus (play twice)

Chorus Extension (play twice)

Chorus (play 4 times)



=======================================================================================


Beautiful Day  
 From: "ShawneeN" 
Standard Tuning
 
Verse 1   (Repeat 6 Times)
G|-----------------8-8-|-8\------------------|-/8-8-8-8-8-8------|-----------------|
D|-8-8-8-10-10-10------|---------------------|---------------8-8-|-8-8-8-8-8-8-8-8-|
A|---------------------|---11-11-11-11-11-11-|-------------------|-----------------|
E|---------------------|---------------------|-------------------|-----------------|
 
Chorus    (Repeat 2 Times)
G|------------------|---1-1-1-1-1-1-|-----------------|-----------------|
D|--------------1-1-|-1-------------|-1-1-1-1-1-1-----|-----------------|
A|-1-1-1-3-3-3------|---------------|-------------1-1-|-1-1-1-1-1-1-1-1-|
E|------------------|---------------|-----------------|-----------------|
 
Verse 2   (Repeat 4 Times)
Follow Chorus riff through the second verse.  Be sure to watch for change
toward end of third measure where Adam will stay on the first fret of the D 
string for one half beat longer.  He does this the first two bars of the second
verse.
 
Chorus   (Repeat 2 Times)
 
Chorus Extension   (Repeat 2 Times)
G|-0-0-0-0-0-0-1-1-|-1-1-1-1-1-1-1-1-|-----------------|-----------------|
D|-----------------|-----------------|-1-1-1-1-1-1-----|-----------------|
A|-----------------|-----------------|-------------1-1-|-1-1-1-1-1-1-1-1-|
E|-----------------|-----------------|-----------------|-----------------|
 
Chorus   (Once)
 
Bridge
G|--------|---------|---------|----------|---------|----------|---------|---------|
D|--------|---------|---------|----------|---------|----------|---------|---------|
A|-8------|-6-------|---------|-6--------|---------|-6--------|---------|-6---1---|
E|--------|---------|-1---4---|----------|-1---4---|----------|-1---4---|---------|
 
Chorus   (Repeat 2 Times)
 
Chorus Extension   (Repeat 2 Times)
 
Chorus   (Repeat 4 Times)
==========================================================================

U2-"Beautiful Day"
from the album "All that You Can't Leave Behind" 
Bass Tab by Dan @ Meatspace@hotmail.com 
(Join the BassTabArchive Tabbing Army!)



Main Riff:
G|-------------------|---------------|------------------------|
D|-7-7-7-9-9-9-12-12-|-12\5-5-5-5-5-5/12-12-12-12-12-12-------|  
A|-------------------|---------------|------------------12-12-|  
E|-------------------|---------------|------------------------|  
   1 + 2 + 3 +  4  +   1  2 + 3 + 4 +  1  +  2  +  3  +  4  +  

G|--------------------------|
D|-------------------------*| Repeat
A|-12-12-12-12-12-12-12-12-*|   14x
E|--------------------------|
    1  +  2  +  3  +  4  + 

2nd Riff:
G|-----------------|-----------------|-----------------|-----------------|
D|-----------------|-----------------|-----------------|-----------------| Repeat
A|-----------------|-----------------|-5-5-5-5-5-5-0-0-|-0-0-0-0-0-0-0-0-|   2x
E|-2-2-2-2-2-2-3-3-|-3-3-3-3-3-3-3-3-|-----------------|-----------------|

Main Riff 2x 

Bridge:
G|---------|----------|---------|----------|----------|--------|
D|---------|----------|---------|----------|*---------|--------|
A|-7-------|-(7)------|-5-------|-(5)------|*---------|--------|
E|---------|----------|---------|----------|--0-------|-3------|
   1 2 3 4    1 2 3 4   1 2 3 4    1 2 3 4   1 2 3 4   1 2 3 4

G|---------|----------|---------|---------|----------------|----------------|
D|---------|---------*|---------|---------|----------------|----------------|
A|-5-------|-(5)-----*|---------|---------|-5-5-5-5-5-5-5-5\0-0-0-0-0-0-0-0-|
E|---------|----------|-0-------|-3-------|----------------|----------------|
   1 2 3 4    1 2 3 4   1 2 3 4   1 2 3 4   1 + 2 + 3 + 4 + 1 + 2 + 3 + 4 + 

Break 

Main Riff 2x

2nd Riff 2x

Outro:
G|----------------|-----------------|-----------------|------------------|
D|----------------|-----------------|-----------------|-----------------*| Repeat
A|0-0-0-2-2-2-5-5-|-5-5-------------|-5-5-5-5-5-5-0-0-|-0-0-0-0-0-0-0-0-*|   4x
E|----------------|-----3-3-3-3-3-3-|-----------------|------------------| 

Ending:
G|------------|-------------|-----------|----------|
D|-7---9---12-|(12)-5-------|-12--------|----------|
A|------------|-------------|--------12-|(12)------|
E|------------|-------------|-----------|----------|  
   1 2 + 3 4    1   2  3  4   1 2 3  4
G|------------|-------------|-----------||
D|-7---9---12-|(12)---5-----|(5)--------||
A|------------|-------------|-----------||
E|------------|-------------|-----------||

--------------------------------------------------------------------------
correction
From: "Justin Link" 
Dude, you got the Beautiful Day Bass Tabs all Wrong! Im in a band for about a year. I saw Adam play it live. Here is the main riff:

G
D
A         555
E 555 777     333

Then after the chorus (its a beautiful day...)

G
D             555
A         555
E 555 777

Good job with the rest of the site...
Linkovich
  development and support by
dmitry ivanov