rock
 
|tablatures   |lyrics   |discussion forums   |more tabs @ XGuitar.com

U2 tabs

Babyface guitar chords

Babyface

Music by U2
Lyrics by Bono
Transcribed by Brandon Leniart 

Tune 1/2 step down, in D major.

(toy piano intro):
1--------------------------------------15--14----------------------
2---15--17--17--15--17--15--15---------------------15--15--17--15--
3------------------------------------------------------------------
4------------------------------------------------------------------
5------------------------------------------------------------------
6------------------------------------------------------------------

Watching your bright blue eyes in the freeze frame
I've seen them so many times I feel like I must be your best friend

1-----------
2---3/15\3--
3-----------
4-----------
5-----------
6-----------

You're looking fine, so fine, oh my, dressed up like a lovely day

(with heavy distortion
1---------------------
2------------------8--
3---7----7----4----7--
4---7----7----4----5--
5---5----5----2-------
6---------------------
D         D         Bm                      G
Babyface, babyface, slow down child, let me untie your lace

(with this fill):
1--------------------
2--------------------
3--------------------
4---0---2---2---4\---
5--------------------
6--------------------

D         D         Bm              G
Babyface, babyface, cover girl with natural grace

1-----------------------
2--------10---------10--
3---9----9-----9----9---
4---9----7-----9----7---
5---7----------7--------
6-----------------------
          Em           A          Em       A
How could beauty be so kind to an ordinary guy?

1-----------------
2-----------------
3-----------------
4-----------------
5---0---2---2--0--
6-----------------

Coming home late at night to turn you on
(with delay, let echo repeat):
1----------------
2---12-------15--
3---11-------14--
4---9--------12--
5----------------
6----------------

Checking out every frame, I've got slow motion on my side
Turning around and around with the sound and colour under my control
Going round and around, doing down, dressed up like a lovely day
D         D         Bm                G
Babyface, babyface, tin foil hair all tied up in lace
Babyface, babyface, bittersweet girl won't you give me a taste
          Em           A          Em       A
How could beauty be so kind to an ordinary guy?
Do do do do...
D         D         Bm                      G
Babyface, babyface, slow down child, let me untie your lace
Babyface, babyface, open that door let me unpack my case
Babyface, babyface, you're everywhere child, you're all over the place
Babyface, babyface, you're coming to me from outerspace
          Em           A          Em       A
How could beauty be so kind to an ordinary guy?

1---------------------3p2-----2--3p2--
2---------------------3-3-----3--3-3--
3---------------------2-2-----2--2-2--
4---0----0--0---------0-0-----0--0-0--
5-------------------------------------
6-------------------------------------

http://www.angelfire.com/va/battersea/index.html




   BABYFACE
tabbed by: Sergio Lucero, slucero@cec.uchile.cl

capo on 1st

 C                         G
Catching your bright blue eyes
        Am        F
In the freeze frame
 C                         G
I've seen them so many times
            Am              F
I feel like I must be your best friend
                C       G       Bb
You're looking fine, so fine, oh my,
                   F
Dressed up like a lovely day

 C         Bb        Am                     F
Babyface, Babyface, slow down child, let me untie your lace
 C         Bb        Am              F
Babyface, Babyface, cover girl with natural grace
           Dm           G         Dm       G
How could beauty be so kind to an ordinary guy?


Coming home late at night to turn you on
Checking out every frame I got slow motion on my side
Turning around and around with the sound and colour
Under my control
Round and around, going down, dressed up like a lovely day

Babyface, Babyface tin foil hair all tied up in lace
Babyface, Babyface bitter sweet girl won't you give me a taste
How could beauty be so kind to an ordinary guy?

Do do do... etc.

Babyface, Babyface, slow down child, let me untie your lace
Babyface, Babyface, open that door let me unpack my case
Babyface, Babyface you're everywhere child
You're all over the place
Babyface, Babyface, you're coming to me from outerspace
Hou could beauty be so kind to an ordinary guy?
  development and support by
dmitry ivanov