rock
 
|tablatures   |lyrics   |discussion forums   |more tabs @ XGuitar.com

U2 tabs

Another Time, Another Place bass tab

#---------------------------------PLEASE NOTE---------------------------------#
#This file is the author's own work and represents their interpretation of the#
#song. You may only use this file for private study, scholarship, or research.#
#-----------------------------------------------------------------------------#

Song: Another Time, Another Place
Artist: U2
Album: Boy
Tabbed by: Jase Warner (trip_through_your_wires@hotmail.com)

Standard Tuning (E,A,D,G) Down Half A Step

Intro (After Guitar):

G|----------------------------------|---------------------------------|
D|*---------------------------------|--------------------------------*|
A|*-2-2-2-2-2-2-2-2-----------------|--------------------------------*|
E|------------------3-3-3-3-3-3-3-3-|-2-2-2-2-2-2-2-2-0-0-0-0-0-0-0-0-|

G|----------------------------------|---------------------------------|
D|*---------------------------------|--------------------------------*|
A|*-2-2-2-2-2-2-2-2-----------------|--------------------------------*|
E|------------------3-3-3-3-3-3-3-3-|-2-2-2-2-2-2-2-2-0-0-0-0-0-0-0-0-|

Verse:

G|-----------------|----------------|----------------|----------------|
D|*----------------|----------------|----------------|---------------*|
A|*----------------|----------------|----------------|---------------*|
E|--0-0-0#---0#--0-|-0-3-0#--0#---0-|-0-3-0#---0#--0-|-0-3-0#--0#---0-|

G|-----------------|----------------|----------------|----------------|
D|*----------------|----------------|----------------|---------------*|
A|*----------------|----------------|----------------|---------------*|
E|--0-0-0#---0#--0-|-0-3-0#--0#---0-|-0-3-0#---0#--0-|-0-3-0#--0#---0-|

G|-----------------|----------------|----------------|----------------|
D|*----------------|----------------|----------------|---------------*|
A|*----------------|----------------|----------------|---------------*|
E|--0-0-0#---0#--0-|-0-3-0#--0#---0-|-0-3-0#---0#--0-|-0-3-0#--0#---0-|

G|-----------------|----------------|----------------|----------------|
D|*----------------|----------------|----------------|---------------*|
A|*----------------|----------------|----------------|---------------*|
E|--0-0-0#---0#--0-|-0-3-0#--0#---0-|-0-3-0#---0#--0-|-0-3-0#--0#---0-|

G|-----------------|----------------|
D|*----------------|---------------*|
A|*----------------|---------------*|
E|--0-0-0#---0#--0-|-0-3-0--0-0-0-0-|

Pre-Chorus:

G|---------------------------------|---------------------------------|
D|*--------------------------------|---------------------------------|
A|*--------------------------------|---------------------------------|
E|-5-5-5-5-5-5-5-5-3-3-3-3-3-3-3-3-|-5-5-5-5-5-5-5-5-3-3-3-3-3-3-3-3-|

G|---------------------------------|---------------------------------|
D|--------------------------------*|*--------------------------------|
A|--------------------------------*|*--------------------------------|
E|-5-5-5-5-5-5-5-5-3-3-3-3-3-3-3-3-|-1-1-1-1-1-1-1-1-5-5-5-5-5-5-5-5-|

G|-----------------|
D|----------------*|
A|----------------*|
E|-1-1-1-1-1-1-1-1-|

Chorus:

G|----------------------------------|---------------------------------|
D|*---------------------------------|--------------------------------*|
A|*-2-2-2-2-2-2-2-2-----------------|--------------------------------*|
E|------------------3-3-3-3-3-3-3-3-|-2-2-2-2-2-2-2-2-0-0-0-0-0-0-0-0-|

G|----------------------------------|---------------------------------|
D|*---------------------------------|--------------------------------*|
A|*-2-2-2-2-2-2-2-2-----------------|--------------------------------*|
E|------------------3-3-3-3-3-3-3-3-|-2-2-2-2-2-2-2-2-0-0-0-0-0-0-0-0-|

Verse:

G|-----------------|----------------|----------------|----------------|
D|*----------------|----------------|----------------|---------------*|
A|*----------------|----------------|----------------|---------------*|
E|--0-0-0#---0#--0-|-0-3-0#--0#---0-|-0-3-0#---0#--0-|-0-3-0#--0#---0-|

G|-----------------|----------------|----------------|----------------|
D|*----------------|----------------|----------------|---------------*|
A|*----------------|----------------|----------------|---------------*|
E|--0-0-0#---0#--0-|-0-3-0#--0#---0-|-0-3-0#---0#--0-|-0-3-0#--0#---0-|

G|-----------------|----------------|----------------|----------------|
D|*----------------|----------------|----------------|---------------*|
A|*----------------|----------------|----------------|---------------*|
E|--0-0-0#---0#--0-|-0-3-0#--0#---0-|-0-3-0#---0#--0-|-0-3-0#--0#---0-|

G|-----------------|----------------|----------------|----------------|
D|*----------------|----------------|----------------|---------------*|
A|*----------------|----------------|----------------|---------------*|
E|--0-0-0#---0#--0-|-0-3-0#--0#---0-|-0-3-0#---0#--0-|-0-3-0#--0#---0-|

G|-----------------|----------------|
D|*----------------|---------------*|
A|*----------------|---------------*|
E|--0-0-0#---0#--0-|-0-3-0--0-0-0-0-|

Pre-Chorus:

G|---------------------------------|---------------------------------|
D|*--------------------------------|---------------------------------|
A|*--------------------------------|---------------------------------|
E|-5-5-5-5-5-5-5-5-3-3-3-3-3-3-3-3-|-5-5-5-5-5-5-5-5-3-3-3-3-3-3-3-3-|

G|---------------------------------|---------------------------------|
D|--------------------------------*|*--------------------------------|
A|--------------------------------*|*--------------------------------|
E|-5-5-5-5-5-5-5-5-3-3-3-3-3-3-3-3-|-1-1-1-1-1-1-1-1-5-5-5-5-5-5-5-5-|

G|-----------------|
D|----------------*|
A|----------------*|
E|-1-1-1-1-1-1-1-1-|

Chorus:

G|----------------------------------|---------------------------------|
D|*---------------------------------|--------------------------------*|
A|*-2-2-2-2-2-2-2-2-----------------|--------------------------------*|
E|------------------3-3-3-3-3-3-3-3-|-2-2-2-2-2-2-2-2-0-0-0-0-0-0-0-0-|

G|----------------------------------|---------------------------------|
D|*---------------------------------|--------------------------------*|
A|*-2-2-2-2-2-2-2-2-----------------|--------------------------------*|
E|------------------3-3-3-3-3-3-3-3-|-2-2-2-2-2-2-2-2-0-0-0-0-0-0-0-0-|

G|----------------------------------|---------------------------------|
D|*---------------------------------|--------------------------------*|
A|*-2-2-2-2-2-2-2-2-----------------|--------------------------------*|
E|------------------3-3-3-3-3-3-3-3-|-2-2-2-2-2-2-2-2-0-0-0-0-0-0-0-0-|

G|----------------------------------|---------------------------------|
D|*---------------------------------|--------------------------------*|
A|*-2-2-2-2-2-2-2-2-----------------|--------------------------------*|
E|------------------3-3-3-3-3-3-3-3-|-2-2-2-2-2-2-2-2-0-0-0-0-0-0-0-0-|

Guitar Solo:

G|----------------------------------|---------------------------------|
D|*---------------------------------|--------------------------------*|
A|*-2-2-2-2-2-2-2-2-----------------|--------------------------------*|
E|------------------3-3-3-3-3-3-3-3-|-2-2-2-2-2-2-2-2-0-0-0-0-0-0-0-0-|

G|----------------------------------|---------------------------------|
D|*---------------------------------|--------------------------------*|
A|*-2-2-2-2-2-2-2-2-----------------|--------------------------------*|
E|------------------3-3-3-3-3-3-3-3-|-2-2-2-2-2-2-2-2-0-0-0-0-0-0-0-0-|

G|----------------------------------|---------------------------------|
D|*---------------------------------|--------------------------------*|
A|*-2-2-2-2-2-2-2-2-----------------|--------------------------------*|
E|------------------3-3-3-3-3-3-3-3-|-2-2-2-2-2-2-2-2-0-0-0-0-0-0-0-0-|

G|----------------------------------|---------------------------------|
D|*---------------------------------|--------------------------------*|
A|*-2-2-2-2-2-2-2-2-----------------|--------------------------------*|
E|------------------3-3-3-3-3-3-3-3-|-2-2-2-2-2-2-2-2-0-0-0-0-0-0-0-0-|

G|----------------------------------|---------------------------------|
D|*---------------------------------|--------------------------------*|
A|*-2-2-2-2-2-2-2-2-----------------|--------------------------------*|
E|------------------3-3-3-3-3-3-3-3-|-2-2-2-2-2-2-2-2-0-0-0-0-0-0-0-0-|

G|----------------------------------|---------------------------------|
D|*---------------------------------|--------------------------------*|
A|*-2-2-2-2-2-2-2-2-----------------|--------------------------------*|
E|------------------3-3-3-3-3-3-3-3-|-2-2-2-2-2-2-2-2-0-0-0-0-0-0-0-0-|

Chorus:

G|----------------------------------|---------------------------------|
D|*---------------------------------|--------------------------------*|
A|*-2-2-2-2-2-2-2-2-----------------|--------------------------------*|
E|------------------3-3-3-3-3-3-3-3-|-2-2-2-2-2-2-2-2-0-0-0-0-0-0-0-0-|

G|----------------------------------|---------------------------------|
D|*---------------------------------|--------------------------------*|
A|*-2-2-2-2-2-2-2-2-----------------|--------------------------------*|
E|------------------3-3-3-3-3-3-3-3-|-2-2-2-2-2-2-2-2-0-0-0-0-0-0-0-0-|

Interlude (German vocals part)

G|----------------------------------|---------------------------------|
D|*---------------------------------|--------------------------------*|
A|*-2-2-2-2/------------------------|--------------------------------*|
E|------------------3-3-3-3/--------|-2-2-2-2/--------0-0-0-0-0-0-0-0-|

G|----------------------------------|---------------------------------|
D|*---------------------------------|--------------------------------*|
A|*-2-2-2-2/------------------------|--------------------------------*|
E|------------------3-3-3-3/--------|-2-2-2-2/--------0-0-0-0-0-0-0-0-|

Chorus:

G|----------------------------------|---------------------------------|
D|*---------------------------------|--------------------------------*|
A|*-2-2-2-2-2-2-2-2-----------------|--------------------------------*|
E|------------------3-3-3-3-3-3-3-3-|-2-2-2-2-2-2-2-2-0-0-0-0-0-0-0-0-|

G|----------------------------------|---------------------------------|
D|*---------------------------------|--------------------------------*|
A|*-2-2-2-2-2-2-2-2-----------------|--------------------------------*|
E|------------------3-3-3-3-3-3-3-3-|-2-2-2-2-2-2-2-2-0-0-0-0-0-0-0-0-|

Post-Chorus:

G|----------------------------------|---------------------------------|
D|*---------------------------------|--------------------------------*|
A|*-2-2-2-2-2-2-2-2-----------------|--------------------------------*|
E|------------------3-3-3-3-3-3-3-3-|-2-2-2-2-2-2-2-2-0-0-0-0-0-0-0-0-|

G|----------------------------------|---------------------------------|
D|*---------------------------------|--------------------------------*|
A|*-2-2-2-2-2-2-2-2-----------------|--------------------------------*|
E|------------------3-3-3-3-3-3-3-3-|-2-2-2-2-2-2-2-2-0-0-0-0-0-0-0-0-|

Outro:

G|-----------------|----------------|----------------|----------------|
D|*----------------|----------------|----------------|---------------*|
A|*----------------|----------------|----------------|---------------*|
E|--0-0-0#---0#--0-|-0-3-0#--0#---0-|-0-3-0#---0#--0-|-0-3-0#--0#---0-|

G|-----------------|----------------|
D|*----------------|---------------*|
A|*----------------|---------------*|
E|--0-0-0#---0#--0-|-0--------/-12--|

Any suggestions are welcomed, hope this is alright for you all.
  development and support by
dmitry ivanov