rock
 
|tablatures   |lyrics   |discussion forums   |more tabs @ XGuitar.com

U2 tabs

Another Day guitar tab

ANOTHER DAY
				     u2

Tune Down 1/2 Step

[                INTRO	              ][(palm muting)]  Whoa.......	
		          x4		      x3    		     x8
|--5-5-4-4-|-5-5-4-4-|-5-4--|-5-5-4\2-|---------|-----|--3-3-3-3-------|
|--5-5-5-5-|-5-5-5-5-|-5-5--|-5-5-5\3-|-3-2-0-2-|-3-2-|--3-3-3-3--2-(0)|
|*---------|---------|-----*|-------2-|*-------*|-----|*----------2---*|
|*---------|---------|-----*|---------|*-------*|-----|*--------------*|
|----------|---------|------|---------|---------|-----|----------------|
|----------|---------|------|---------|---------|-----|----------------|



VERSE

Wake up...
      (p.m.)		(n.h.)	    (p.m.)	      (n.h.)	(p.m.)
	x5			      x7
|---------|-----|--4--|-------|---------|-----|--4--|-------|-------------|
|-3-2-0-2-|-3-2-|--5--|---7---|-3-2-0-2-|-3-2-|--5--|---7---|-3-2-0-2-3-2-|
|*-------*|-----|--4--|-----7-|*-------*|-----|--4--|-----7-|-------------|
|*-------*|-----|-----|-5-----|*-------*|-----|-----|-5-----|-------------|
|---------|-----|-----|-------|---------|-----|-----|-------|-------------|
|---------|-----|-----|-------|---------|-----|-----|-------|-------------|



CHORUS

When night...			   (p.m.)     Stop... Shout..    (p.m.)

|----2------4----|--2---4---2--|-------------|---2--(0)--4---|-------------|
|----3------5----|--3---5---3--|-3-2-0-2-3-2-|---3--(0)--5---|-3-2-0-2-3-2-|
|----2------4----|--2---4---2--|-------------|---2-------4---|-------------|
|----------------|-------------|-------------|---------------|-------------|
|----------------|-------------|-------------|---------------|-------------|
|----------------|-------------|-------------|---------------|-------------|

	       x8
|--3-3-3-3-------|
|--3-3-3-3--2-(0)|
|*----------2---*|
|*--------------*|
|----------------|
|----------------|



HALF VERSE

      (p.m.)		(n.h.)
	x5
|---------|-----|--4--|-------|-------------|
|-3-2-0-2-|-3-2-|--5--|---7---|-3-2-0-2-3-2-|
|*-------*|-----|--4--|-----7-|-------------|
|*-------*|-----|-----|-5-----|-------------|
|---------|-----|-----|-------|-------------|
|---------|-----|-----|-------|-------------|


	CHORUS

	INTRO x10 (Instead of x4)

END ON>
	      x12
|--3-3-3-3-------|
|--3-3-3-3--2-(0)|
|*----------2---*|
|*--------------*|
|----------------|
|----------------|


		TRANSCRIBED BY: PETER SCHENK(wiglaf@falcon.cc.ukans.edu)
  development and support by
dmitry ivanov