rock
 
|tablatures   |lyrics   |discussion forums   |more tabs @ XGuitar.com

U2 tabs

Angel Of Harlem bass tab

Date: Sun, 3 Dec 1995 13:28:29 -0500
From: am560@freenet.carleton.ca (Glen Palmer)
Subject: U2 ANGEL OF HARLEM - BASS TAB

U2 ANGEL OF HARLEM (BASS TAB)
-----------------------------
steve palmer- am560@freenet.carleton.ca

Verse:
------
    C      F       C      F  
g|--------------------------------------|
d|--------------------------------------|
a|--3-3--------0---3-3--------0---------|
E|-------0-1-3----------0-1-3---3-------|

Chorus:
-------
    F         G         G         F         F         G
g|--------------------------------------------------------------|
d|--------------------------------------------------------------|
a|--------------------------------------------------------------|
E|--1--1-0-1--3--3-1-3--3--3-1-3--1--1-0-1--1--1-0-1--3--3-1-3--|

Bridge:
-------
    Am        G         F         F
g|----------------------------------------------|
d|----------------------------------------------|
a|--0--0---0------------------------------------|
E|-------3----3--3-1-3--1--1-0-1--1--1-0-1------|
(Repeat 2X)

that's all...
suggestions, corrections welcome

  development and support by
dmitry ivanov