rock
 
|tablatures   |lyrics   |discussion forums   |more tabs @ XGuitar.com

U2 tabs

An Cat Dubh bass tab

U2 - "An Cat Dubh" BASS TAB
---------------------------
steve palmer am560@freenet.carleton.ca

Tune down 1/2 step to: Eb Ab Db Gb

Main bass riff:
   D                D
|----------------|-----------------|
|:------------7--|-------------7---|
|:-5-5-5-5-5-----|--5-5-5-5-5------|
|----------------|-----------------|

Chorus:
   C        G        D
|--------------------------------------|
|:-------------------------------------|
|:-3-3-3-3-----------5-5---3/5-3/5-5---|
|-----------3-3-3-3--------------------|
  (3X)
   C        G        F
|--------------------------------------|
|:-------------------------------------|
|:-3-3-3-3-----------------------------|
|-----------3-3-3-3--1------1/13-------|


2nd solo bass riff:
    D                   D
|--------------------|-------------------|
|:-------------------|-------------------|
|:--5-5-5-5-5-5/8-7--|--5-5-5-5-5-5/8-7--|
|--------------------|-------------------|
  development and support by
dmitry ivanov